  0
SECTION
  2
HEADER
  9
$ACADVER
  1
AC1009
  9
$INSBASE
 10
0.000000
 20
0.000000
  9
$LIMMIN
 10
-127.381000
 20
-260.781800
  9
$LIMMAX
 10
787.019000
 20
348.818200
  9
$EXTMIN
 10
-127.381000
 20
-260.781800
  9
$EXTMAX
 10
787.019000
 20
348.818200
  9
$ATTMODE
 70
0
  9
$LUNITS
 70
2
  9
$LUPREC
 70
4
  9
$THICKNESS
 40
1.198880
  0
ENDSEC
  0
SECTION
  2
TABLES
  0
TABLE
  2
LTYPE
 70
1
  0
LTYPE
  3
Solid Line
  2
CONTINUOUS
 70
0
 72
65
 73
0
 40
0.000000
  0
ENDTAB
  0
TABLE
  2
LAYER
 70
13
  0
LAYER
  2
BG_SILKSCREEN_TOP
 70
0
 62
1
  6
CONTINUOUS
  0
LAYER
  2
BG_OUTLINE
 70
0
 62
2
  6
CONTINUOUS
  0
LAYER
  2
DF_REVISION_DATA
 70
0
 62
3
  6
CONTINUOUS
  0
LAYER
  2
DF_REVISION_BLOCK
 70
0
 62
4
  6
CONTINUOUS
  0
LAYER
  2
DF_TITLE_DATA
 70
0
 62
5
  6
CONTINUOUS
  0
LAYER
  2
DF_TITLE_BLOCK
 70
0
 62
6
  6
CONTINUOUS
  0
LAYER
  2
DF_OUTLINE
 70
0
 62
7
  6
CONTINUOUS
  0
LAYER
  2
MA_NCLEGEND-1-4
 70
0
 62
8
  6
CONTINUOUS
  0
LAYER
  2
MA_NCLEGEND-1-6
 70
0
 62
9
  6
CONTINUOUS
  0
LAYER
  2
PG_SILKSCREEN_TOP
 70
0
 62
10
  6
CONTINUOUS
  0
LAYER
  2
PIN_TOP
 70
0
 62
11
  6
CONTINUOUS
  0
LAYER
  2
PIN_IN1-LAYER3
 70
0
 62
12
  6
CONTINUOUS
  0
LAYER
  2
PIN_IN2-LAYER4
 70
0
 62
13
  6
CONTINUOUS
  0
ENDTAB
  0
TABLE
  2
STYLE
 70
1
  0
STYLE
  2
STANDARD
 70
0
 40
0.000000
 41
1.000000
 50
0.000000
 71
0
 42
0.200000
  3
txt
  0
ENDTAB
  0
ENDSEC
  0
SECTION
  2
BLOCKS
  0
BLOCK
  8
0
  2
FIGURE_CIRCLE
 70
0
 10
0.000000
 20
0.000000
  0
CIRCLE
  8
0
 10
0.000000
 20
0.000000
 40
0.500000
  0
ENDBLK
  0
BLOCK
  8
0
  2
FIGURE_SQUARE
 70
0
 10
0.000000
 20
0.000000
  0
POLYLINE
  8
0
 66
1
 70
1
 40
0.000000
 41
0.000000
 39
0.000000
  0
VERTEX
  8
0
 10
-0.500000
 20
-0.500000
 40
0.000000
 41
0.000000
 42
0.000000
  0
VERTEX
  8
0
 10
-0.500000
 20
0.500000
 40
0.000000
 41
0.000000
 42
0.000000
  0
VERTEX
  8
0
 10
0.500000
 20
0.500000
 40
0.000000
 41
0.000000
 42
0.000000
  0
VERTEX
  8
0
 10
0.500000
 20
-0.500000
 40
0.000000
 41
0.000000
 42
0.000000
  0
SEQEND
  0
ENDBLK
  0
BLOCK
  8
0
  2
FIGURE_HEX
 70
0
 10
0.000000
 20
0.000000
  0
POLYLINE
  8
0
 66
1
 70
1
 40
0.000000
 41
0.000000
 39
0.000000
  0
VERTEX
  8
0
 10
-0.500000
 20
0.000000
 40
0.000000
 41
0.000000
 42
0.000000
  0
VERTEX
  8
0
 10
-0.250000
 20
0.500000
 40
0.000000
 41
0.000000
 42
0.000000
  0
VERTEX
  8
0
 10
0.250000
 20
0.500000
 40
0.000000
 41
0.000000
 42
0.000000
  0
VERTEX
  8
0
 10
0.500000
 20
0.000000
 40
0.000000
 41
0.000000
 42
0.000000
  0
VERTEX
  8
0
 10
0.250000
 20
-0.500000
 40
0.000000
 41
0.000000
 42
0.000000
  0
VERTEX
  8
0
 10
-0.250000
 20
-0.500000
 40
0.000000
 41
0.000000
 42
0.000000
  0
SEQEND
  0
ENDBLK
  0
BLOCK
  8
0
  2
FIGURE_OCT
 70
0
 10
0.000000
 20
0.000000
  0
POLYLINE
  8
0
 66
1
 70
1
 40
0.000000
 41
0.000000
 39
0.000000
  0
VERTEX
  8
0
 10
-0.500000
 20
-0.207100
 40
0.000000
 41
0.000000
 42
0.000000
  0
VERTEX
  8
0
 10
-0.500000
 20
0.207100
 40
0.000000
 41
0.000000
 42
0.000000
  0
VERTEX
  8
0
 10
-0.207100
 20
0.500000
 40
0.000000
 41
0.000000
 42
0.000000
  0
VERTEX
  8
0
 10
0.207100
 20
0.500000
 40
0.000000
 41
0.000000
 42
0.000000
  0
VERTEX
  8
0
 10
0.500000
 20
0.207100
 40
0.000000
 41
0.000000
 42
0.000000
  0
VERTEX
  8
0
 10
0.500000
 20
-0.207100
 40
0.000000
 41
0.000000
 42
0.000000
  0
VERTEX
  8
0
 10
0.207100
 20
-0.500000
 40
0.000000
 41
0.000000
 42
0.000000
  0
VERTEX
  8
0
 10
-0.207100
 20
-0.500000
 40
0.000000
 41
0.000000
 42
0.000000
  0
SEQEND
  0
ENDBLK
  0
BLOCK
  8
0
  2
FIGURE_OBLONG
 70
0
 10
0.000000
 20
0.000000
  0
POLYLINE
  8
0
 66
1
 70
1
 40
0.000000
 41
0.000000
 39
0.000000
  0
VERTEX
  8
0
 10
-0.500000
 20
-0.125000
 40
0.000000
 41
0.000000
 42
0.000000
  0
VERTEX
  8
0
 10
-0.500000
 20
0.125000
 40
0.000000
 41
0.000000
 42
0.000000
  0
VERTEX
  8
0
 10
-0.416000
 20
0.375000
 40
0.000000
 41
0.000000
 42
0.000000
  0
VERTEX
  8
0
 10
-0.250000
 20
0.500000
 40
0.000000
 41
0.000000
 42
0.000000
  0
VERTEX
  8
0
 10
0.250000
 20
0.500000
 40
0.000000
 41
0.000000
 42
0.000000
  0
VERTEX
  8
0
 10
0.416000
 20
0.375000
 40
0.000000
 41
0.000000
 42
0.000000
  0
VERTEX
  8
0
 10
0.500000
 20
0.125000
 40
0.000000
 41
0.000000
 42
0.000000
  0
VERTEX
  8
0
 10
0.500000
 20
-0.125000
 40
0.000000
 41
0.000000
 42
0.000000
  0
VERTEX
  8
0
 10
0.416000
 20
-0.375000
 40
0.000000
 41
0.000000
 42
0.000000
  0
VERTEX
  8
0
 10
0.250000
 20
-0.500000
 40
0.000000
 41
0.000000
 42
0.000000
  0
VERTEX
  8
0
 10
-0.250000
 20
-0.500000
 40
0.000000
 41
0.000000
 42
0.000000
  0
VERTEX
  8
0
 10
-0.416000
 20
-0.375000
 40
0.000000
 41
0.000000
 42
0.000000
  0
SEQEND
  0
ENDBLK
  0
BLOCK
  8
0
  2
FIGURE_TRI
 70
0
 10
0.000000
 20
0.000000
  0
POLYLINE
  8
0
 66
1
 70
1
 40
0.000000
 41
0.000000
 39
0.000000
  0
VERTEX
  8
0
 10
-0.500000
 20
-0.500000
 40
0.000000
 41
0.000000
 42
0.000000
  0
VERTEX
  8
0
 10
0.000000
 20
0.500000
 40
0.000000
 41
0.000000
 42
0.000000
  0
VERTEX
  8
0
 10
0.500000
 20
-0.500000
 40
0.000000
 41
0.000000
 42
0.000000
  0
SEQEND
  0
ENDBLK
  0
BLOCK
  8
0
  2
FIGURE_CROSS
 70
0
 10
0.000000
 20
0.000000
  0
POLYLINE
  8
0
 66
1
 70
0
 40
0.000000
 41
0.000000
 39
0.000000
  0
VERTEX
  8
0
 10
-0.500000
 20
0.000000
 40
0.000000
 41
0.000000
 42
0.000000
  0
VERTEX
  8
0
 10
0.500000
 20
0.000000
 40
0.000000
 41
0.000000
 42
0.000000
  0
SEQEND
  0
POLYLINE
  8
0
 66
1
 70
0
 40
0.000000
 41
0.000000
 39
0.000000
  0
VERTEX
  8
0
 10
0.000000
 20
0.500000
 40
0.000000
 41
0.000000
 42
0.000000
  0
VERTEX
  8
0
 10
0.000000
 20
-0.500000
 40
0.000000
 41
0.000000
 42
0.000000
  0
SEQEND
  0
ENDBLK
  0
BLOCK
  8
0
  2
FIGURE_DIAMOND
 70
0
 10
0.000000
 20
0.000000
  0
POLYLINE
  8
0
 66
1
 70
1
 40
0.000000
 41
0.000000
 39
0.000000
  0
VERTEX
  8
0
 10
-0.500000
 20
0.000000
 40
0.000000
 41
0.000000
 42
0.000000
  0
VERTEX
  8
0
 10
0.000000
 20
0.500000
 40
0.000000
 41
0.000000
 42
0.000000
  0
VERTEX
  8
0
 10
0.500000
 20
0.000000
 40
0.000000
 41
0.000000
 42
0.000000
  0
VERTEX
  8
0
 10
0.000000
 20
-0.500000
 40
0.000000
 41
0.000000
 42
0.000000
  0
SEQEND
  0
ENDBLK
  0
ENDSEC
  0
SECTION
  2
ENTITIES
  0
POLYLINE
  8
PIN_TOP
 66
1
 70
1
 40
0.000000
 41
0.000000
 39
0.000000
  0
VERTEX
  8
PIN_TOP
 10
85.535200
 20
90.864800
 40
0.000000
 41
0.000000
 42
0.000000
  0
VERTEX
  8
PIN_TOP
 10
84.620800
 20
90.864800
 40
0.000000
 41
0.000000
 42
0.000000
  0
VERTEX
  8
PIN_TOP
 10
84.620800
 20
91.779200
 40
0.000000
 41
0.000000
 42
0.000000
  0
VERTEX
  8
PIN_TOP
 10
85.535200
 20
91.779200
 40
0.000000
 41
0.000000
 42
0.000000
  0
SEQEND
  0
POLYLINE
  8
PIN_TOP
 66
1
 70
1
 40
0.000000
 41
0.000000
 39
0.000000
  0
VERTEX
  8
PIN_TOP
 10
85.535200
 20
89.340800
 40
0.000000
 41
0.000000
 42
0.000000
  0
VERTEX
  8
PIN_TOP
 10
84.620800
 20
89.340800
 40
0.000000
 41
0.000000
 42
0.000000
  0
VERTEX
  8
PIN_TOP
 10
84.620800
 20
90.255200
 40
0.000000
 41
0.000000
 42
0.000000
  0
VERTEX
  8
PIN_TOP
 10
85.535200
 20
90.255200
 40
0.000000
 41
0.000000
 42
0.000000
  0
SEQEND
  0
POLYLINE
  8
PG_SILKSCREEN_TOP
 66
1
 70
1
 40
0.000000
 41
0.000000
 39
0.000000
  0
VERTEX
  8
PG_SILKSCREEN_TOP
 10
84.443000
 20
89.163000
 40
0.152400
 41
0.152400
 42
0.000000
  0
VERTEX
  8
PG_SILKSCREEN_TOP
 10
84.443000
 20
91.957000
 40
0.152400
 41
0.152400
 42
0.000000
  0
VERTEX
  8
PG_SILKSCREEN_TOP
 10
85.713000
 20
91.957000
 40
0.152400
 41
0.152400
 42
0.000000
  0
VERTEX
  8
PG_SILKSCREEN_TOP
 10
85.713000
 20
89.163000
 40
0.152400
 41
0.152400
 42
0.000000
  0
SEQEND
  0
POLYLINE
  8
PG_SILKSCREEN_TOP
 66
1
 70
1
 40
0.000000
 41
0.000000
 39
0.000000
  0
VERTEX
  8
PG_SILKSCREEN_TOP
 10
84.824000
 20
90.433000
 40
0.152400
 41
0.152400
 42
0.000000
  0
VERTEX
  8
PG_SILKSCREEN_TOP
 10
85.459000
 20
90.433000
 40
0.152400
 41
0.152400
 42
0.000000
  0
VERTEX
  8
PG_SILKSCREEN_TOP
 10
85.078000
 20
90.687000
 40
0.152400
 41
0.152400
 42
0.000000
  0
VERTEX
  8
PG_SILKSCREEN_TOP
 10
84.697000
 20
90.433000
 40
0.152400
 41
0.152400
 42
0.000000
  0
SEQEND
  0
POLYLINE
  8
PIN_TOP
 66
1
 70
1
 40
0.000000
 41
0.000000
 39
0.000000
  0
VERTEX
  8
PIN_TOP
 10
86.932200
 20
90.864800
 40
0.000000
 41
0.000000
 42
0.000000
  0
VERTEX
  8
PIN_TOP
 10
86.017800
 20
90.864800
 40
0.000000
 41
0.000000
 42
0.000000
  0
VERTEX
  8
PIN_TOP
 10
86.017800
 20
91.779200
 40
0.000000
 41
0.000000
 42
0.000000
  0
VERTEX
  8
PIN_TOP
 10
86.932200
 20
91.779200
 40
0.000000
 41
0.000000
 42
0.000000
  0
SEQEND
  0
POLYLINE
  8
PIN_TOP
 66
1
 70
1
 40
0.000000
 41
0.000000
 39
0.000000
  0
VERTEX
  8
PIN_TOP
 10
86.932200
 20
89.340800
 40
0.000000
 41
0.000000
 42
0.000000
  0
VERTEX
  8
PIN_TOP
 10
86.017800
 20
89.340800
 40
0.000000
 41
0.000000
 42
0.000000
  0
VERTEX
  8
PIN_TOP
 10
86.017800
 20
90.255200
 40
0.000000
 41
0.000000
 42
0.000000
  0
VERTEX
  8
PIN_TOP
 10
86.932200
 20
90.255200
 40
0.000000
 41
0.000000
 42
0.000000
  0
SEQEND
  0
POLYLINE
  8
PG_SILKSCREEN_TOP
 66
1
 70
1
 40
0.000000
 41
0.000000
 39
0.000000
  0
VERTEX
  8
PG_SILKSCREEN_TOP
 10
85.840000
 20
89.163000
 40
0.152400
 41
0.152400
 42
0.000000
  0
VERTEX
  8
PG_SILKSCREEN_TOP
 10
85.840000
 20
91.957000
 40
0.152400
 41
0.152400
 42
0.000000
  0
VERTEX
  8
PG_SILKSCREEN_TOP
 10
87.110000
 20
91.957000
 40
0.152400
 41
0.152400
 42
0.000000
  0
VERTEX
  8
PG_SILKSCREEN_TOP
 10
87.110000
 20
89.163000
 40
0.152400
 41
0.152400
 42
0.000000
  0
SEQEND
  0
POLYLINE
  8
PG_SILKSCREEN_TOP
 66
1
 70
1
 40
0.000000
 41
0.000000
 39
0.000000
  0
VERTEX
  8
PG_SILKSCREEN_TOP
 10
86.221000
 20
90.433000
 40
0.152400
 41
0.152400
 42
0.000000
  0
VERTEX
  8
PG_SILKSCREEN_TOP
 10
86.856000
 20
90.433000
 40
0.152400
 41
0.152400
 42
0.000000
  0
VERTEX
  8
PG_SILKSCREEN_TOP
 10
86.475000
 20
90.687000
 40
0.152400
 41
0.152400
 42
0.000000
  0
VERTEX
  8
PG_SILKSCREEN_TOP
 10
86.094000
 20
90.433000
 40
0.152400
 41
0.152400
 42
0.000000
  0
SEQEND
  0
POLYLINE
  8
PIN_TOP
 66
1
 70
1
 40
0.000000
 41
0.000000
 39
0.000000
  0
VERTEX
  8
PIN_TOP
 10
116.974400
 20
109.086600
 40
0.000000
 41
0.000000
 42
0.000000
  0
VERTEX
  8
PIN_TOP
 10
118.498400
 20
109.086600
 40
0.000000
 41
0.000000
 42
0.000000
  0
VERTEX
  8
PIN_TOP
 10
118.498400
 20
107.562600
 40
0.000000
 41
0.000000
 42
0.000000
  0
VERTEX
  8
PIN_TOP
 10
116.974400
 20
107.562600
 40
0.000000
 41
0.000000
 42
0.000000
  0
SEQEND
  0
CIRCLE
  8
PIN_IN1-LAYER3
 10
117.736400
 20
108.324600
 40
0.762000
  0
CIRCLE
  8
PIN_IN2-LAYER4
 10
117.736400
 20
108.324600
 40
0.762000
  0
INSERT
  8
MANUFACTURING_NCDRILL_FIGURE
  2
FIGURE_CIRCLE
 10
117.736400
 20
108.324600
 41
1.016000
 42
1.016000
 50
0.000000
  0
CIRCLE
  8
PIN_TOP
 10
117.736400
 20
105.784600
 40
0.762000
  0
CIRCLE
  8
PIN_IN1-LAYER3
 10
117.736400
 20
105.784600
 40
0.762000
  0
CIRCLE
  8
PIN_IN2-LAYER4
 10
117.736400
 20
105.784600
 40
0.762000
  0
INSERT
  8
MANUFACTURING_NCDRILL_FIGURE
  2
FIGURE_CIRCLE
 10
117.736400
 20
105.784600
 41
1.016000
 42
1.016000
 50
0.000000
  0
CIRCLE
  8
PIN_TOP
 10
117.736400
 20
103.244600
 40
0.762000
  0
CIRCLE
  8
PIN_IN1-LAYER3
 10
117.736400
 20
103.244600
 40
0.762000
  0
CIRCLE
  8
PIN_IN2-LAYER4
 10
117.736400
 20
103.244600
 40
0.762000
  0
INSERT
  8
MANUFACTURING_NCDRILL_FIGURE
  2
FIGURE_CIRCLE
 10
117.736400
 20
103.244600
 41
1.016000
 42
1.016000
 50
0.000000
  0
CIRCLE
  8
PIN_TOP
 10
117.736400
 20
100.704600
 40
0.762000
  0
CIRCLE
  8
PIN_IN1-LAYER3
 10
117.736400
 20
100.704600
 40
0.762000
  0
CIRCLE
  8
PIN_IN2-LAYER4
 10
117.736400
 20
100.704600
 40
0.762000
  0
INSERT
  8
MANUFACTURING_NCDRILL_FIGURE
  2
FIGURE_CIRCLE
 10
117.736400
 20
100.704600
 41
1.016000
 42
1.016000
 50
0.000000
  0
CIRCLE
  8
PIN_TOP
 10
117.736400
 20
98.164600
 40
0.762000
  0
CIRCLE
  8
PIN_IN1-LAYER3
 10
117.736400
 20
98.164600
 40
0.762000
  0
CIRCLE
  8
PIN_IN2-LAYER4
 10
117.736400
 20
98.164600
 40
0.762000
  0
INSERT
  8
MANUFACTURING_NCDRILL_FIGURE
  2
FIGURE_CIRCLE
 10
117.736400
 20
98.164600
 41
1.016000
 42
1.016000
 50
0.000000
  0
CIRCLE
  8
PIN_TOP
 10
120.276400
 20
108.324600
 40
0.762000
  0
CIRCLE
  8
PIN_IN1-LAYER3
 10
120.276400
 20
108.324600
 40
0.762000
  0
CIRCLE
  8
PIN_IN2-LAYER4
 10
120.276400
 20
108.324600
 40
0.762000
  0
INSERT
  8
MANUFACTURING_NCDRILL_FIGURE
  2
FIGURE_CIRCLE
 10
120.276400
 20
108.324600
 41
1.016000
 42
1.016000
 50
0.000000
  0
CIRCLE
  8
PIN_TOP
 10
120.276400
 20
105.784600
 40
0.762000
  0
CIRCLE
  8
PIN_IN1-LAYER3
 10
120.276400
 20
105.784600
 40
0.762000
  0
CIRCLE
  8
PIN_IN2-LAYER4
 10
120.276400
 20
105.784600
 40
0.762000
  0
INSERT
  8
MANUFACTURING_NCDRILL_FIGURE
  2
FIGURE_CIRCLE
 10
120.276400
 20
105.784600
 41
1.016000
 42
1.016000
 50
0.000000
  0
CIRCLE
  8
PIN_TOP
 10
120.276400
 20
103.244600
 40
0.762000
  0
CIRCLE
  8
PIN_IN1-LAYER3
 10
120.276400
 20
103.244600
 40
0.762000
  0
CIRCLE
  8
PIN_IN2-LAYER4
 10
120.276400
 20
103.244600
 40
0.762000
  0
INSERT
  8
MANUFACTURING_NCDRILL_FIGURE
  2
FIGURE_CIRCLE
 10
120.276400
 20
103.244600
 41
1.016000
 42
1.016000
 50
0.000000
  0
CIRCLE
  8
PIN_TOP
 10
120.276400
 20
100.704600
 40
0.762000
  0
CIRCLE
  8
PIN_IN1-LAYER3
 10
120.276400
 20
100.704600
 40
0.762000
  0
CIRCLE
  8
PIN_IN2-LAYER4
 10
120.276400
 20
100.704600
 40
0.762000
  0
INSERT
  8
MANUFACTURING_NCDRILL_FIGURE
  2
FIGURE_CIRCLE
 10
120.276400
 20
100.704600
 41
1.016000
 42
1.016000
 50
0.000000
  0
CIRCLE
  8
PIN_TOP
 10
120.276400
 20
98.164600
 40
0.762000
  0
CIRCLE
  8
PIN_IN1-LAYER3
 10
120.276400
 20
98.164600
 40
0.762000
  0
CIRCLE
  8
PIN_IN2-LAYER4
 10
120.276400
 20
98.164600
 40
0.762000
  0
INSERT
  8
MANUFACTURING_NCDRILL_FIGURE
  2
FIGURE_CIRCLE
 10
120.276400
 20
98.164600
 41
1.016000
 42
1.016000
 50
0.000000
  0
CIRCLE
  8
PIN_TOP
 10
120.276400
 20
95.624600
 40
0.762000
  0
CIRCLE
  8
PIN_IN1-LAYER3
 10
120.276400
 20
95.624600
 40
0.762000
  0
CIRCLE
  8
PIN_IN2-LAYER4
 10
120.276400
 20
95.624600
 40
0.762000
  0
INSERT
  8
MANUFACTURING_NCDRILL_FIGURE
  2
FIGURE_CIRCLE
 10
120.276400
 20
95.624600
 41
1.016000
 42
1.016000
 50
0.000000
  0
CIRCLE
  8
PIN_TOP
 10
117.736400
 20
95.624600
 40
0.762000
  0
CIRCLE
  8
PIN_IN1-LAYER3
 10
117.736400
 20
95.624600
 40
0.762000
  0
CIRCLE
  8
PIN_IN2-LAYER4
 10
117.736400
 20
95.624600
 40
0.762000
  0
INSERT
  8
MANUFACTURING_NCDRILL_FIGURE
  2
FIGURE_CIRCLE
 10
117.736400
 20
95.624600
 41
1.016000
 42
1.016000
 50
0.000000
  0
POLYLINE
  8
PG_SILKSCREEN_TOP
 66
1
 70
0
 40
0.000000
 41
0.000000
 39
0.000000
  0
VERTEX
  8
PG_SILKSCREEN_TOP
 10
117.228400
 20
107.054600
 40
0.152400
 41
0.152400
 42
0.000000
  0
VERTEX
  8
PG_SILKSCREEN_TOP
 10
116.466400
 20
107.816600
 40
0.152400
 41
0.152400
 42
0.000000
  0
VERTEX
  8
PG_SILKSCREEN_TOP
 10
116.466400
 20
108.832600
 40
0.152400
 41
0.152400
 42
0.000000
  0
VERTEX
  8
PG_SILKSCREEN_TOP
 10
117.228400
 20
109.594600
 40
0.152400
 41
0.152400
 42
0.000000
  0
SEQEND
  0
POLYLINE
  8
PG_SILKSCREEN_TOP
 66
1
 70
0
 40
0.000000
 41
0.000000
 39
0.000000
  0
VERTEX
  8
PG_SILKSCREEN_TOP
 10
117.228400
 20
107.054600
 40
0.152400
 41
0.152400
 42
0.000000
  0
VERTEX
  8
PG_SILKSCREEN_TOP
 10
118.244400
 20
107.054600
 40
0.152400
 41
0.152400
 42
0.000000
  0
VERTEX
  8
PG_SILKSCREEN_TOP
 10
119.006400
 20
107.816600
 40
0.152400
 41
0.152400
 42
0.000000
  0
VERTEX
  8
PG_SILKSCREEN_TOP
 10
119.006400
 20
108.832600
 40
0.152400
 41
0.152400
 42
0.000000
  0
VERTEX
  8
PG_SILKSCREEN_TOP
 10
118.244400
 20
109.594600
 40
0.152400
 41
0.152400
 42
0.000000
  0
VERTEX
  8
PG_SILKSCREEN_TOP
 10
117.228400
 20
109.594600
 40
0.152400
 41
0.152400
 42
0.000000
  0
SEQEND
  0
POLYLINE
  8
PG_SILKSCREEN_TOP
 66
1
 70
0
 40
0.000000
 41
0.000000
 39
0.000000
  0
VERTEX
  8
PG_SILKSCREEN_TOP
 10
117.228400
 20
104.514600
 40
0.152400
 41
0.152400
 42
0.000000
  0
VERTEX
  8
PG_SILKSCREEN_TOP
 10
118.244400
 20
104.514600
 40
0.152400
 41
0.152400
 42
0.000000
  0
VERTEX
  8
PG_SILKSCREEN_TOP
 10
119.006400
 20
105.276600
 40
0.152400
 41
0.152400
 42
0.000000
  0
VERTEX
  8
PG_SILKSCREEN_TOP
 10
119.006400
 20
106.292600
 40
0.152400
 41
0.152400
 42
0.000000
  0
VERTEX
  8
PG_SILKSCREEN_TOP
 10
118.244400
 20
107.054600
 40
0.152400
 41
0.152400
 42
0.000000
  0
VERTEX
  8
PG_SILKSCREEN_TOP
 10
117.228400
 20
107.054600
 40
0.152400
 41
0.152400
 42
0.000000
  0
SEQEND
  0
POLYLINE
  8
PG_SILKSCREEN_TOP
 66
1
 70
0
 40
0.000000
 41
0.000000
 39
0.000000
  0
VERTEX
  8
PG_SILKSCREEN_TOP
 10
117.228400
 20
104.514600
 40
0.152400
 41
0.152400
 42
0.000000
  0
VERTEX
  8
PG_SILKSCREEN_TOP
 10
116.466400
 20
105.276600
 40
0.152400
 41
0.152400
 42
0.000000
  0
VERTEX
  8
PG_SILKSCREEN_TOP
 10
116.466400
 20
106.292600
 40
0.152400
 41
0.152400
 42
0.000000
  0
VERTEX
  8
PG_SILKSCREEN_TOP
 10
117.228400
 20
107.054600
 40
0.152400
 41
0.152400
 42
0.000000
  0
SEQEND
  0
POLYLINE
  8
PG_SILKSCREEN_TOP
 66
1
 70
0
 40
0.000000
 41
0.000000
 39
0.000000
  0
VERTEX
  8
PG_SILKSCREEN_TOP
 10
117.228400
 20
101.974600
 40
0.152400
 41
0.152400
 42
0.000000
  0
VERTEX
  8
PG_SILKSCREEN_TOP
 10
118.244400
 20
101.974600
 40
0.152400
 41
0.152400
 42
0.000000
  0
VERTEX
  8
PG_SILKSCREEN_TOP
 10
119.006400
 20
102.736600
 40
0.152400
 41
0.152400
 42
0.000000
  0
VERTEX
  8
PG_SILKSCREEN_TOP
 10
119.006400
 20
103.752600
 40
0.152400
 41
0.152400
 42
0.000000
  0
VERTEX
  8
PG_SILKSCREEN_TOP
 10
118.244400
 20
104.514600
 40
0.152400
 41
0.152400
 42
0.000000
  0
VERTEX
  8
PG_SILKSCREEN_TOP
 10
117.228400
 20
104.514600
 40
0.152400
 41
0.152400
 42
0.000000
  0
SEQEND
  0
POLYLINE
  8
PG_SILKSCREEN_TOP
 66
1
 70
0
 40
0.000000
 41
0.000000
 39
0.000000
  0
VERTEX
  8
PG_SILKSCREEN_TOP
 10
117.228400
 20
101.974600
 40
0.152400
 41
0.152400
 42
0.000000
  0
VERTEX
  8
PG_SILKSCREEN_TOP
 10
116.466400
 20
102.736600
 40
0.152400
 41
0.152400
 42
0.000000
  0
VERTEX
  8
PG_SILKSCREEN_TOP
 10
116.466400
 20
103.752600
 40
0.152400
 41
0.152400
 42
0.000000
  0
VERTEX
  8
PG_SILKSCREEN_TOP
 10
117.228400
 20
104.514600
 40
0.152400
 41
0.152400
 42
0.000000
  0
SEQEND
  0
POLYLINE
  8
PG_SILKSCREEN_TOP
 66
1
 70
0
 40
0.000000
 41
0.000000
 39
0.000000
  0
VERTEX
  8
PG_SILKSCREEN_TOP
 10
117.228400
 20
99.434600
 40
0.152400
 41
0.152400
 42
0.000000
  0
VERTEX
  8
PG_SILKSCREEN_TOP
 10
118.244400
 20
99.434600
 40
0.152400
 41
0.152400
 42
0.000000
  0
VERTEX
  8
PG_SILKSCREEN_TOP
 10
119.006400
 20
100.196600
 40
0.152400
 41
0.152400
 42
0.000000
  0
VERTEX
  8
PG_SILKSCREEN_TOP
 10
119.006400
 20
101.212600
 40
0.152400
 41
0.152400
 42
0.000000
  0
VERTEX
  8
PG_SILKSCREEN_TOP
 10
118.244400
 20
101.974600
 40
0.152400
 41
0.152400
 42
0.000000
  0
VERTEX
  8
PG_SILKSCREEN_TOP
 10
117.228400
 20
101.974600
 40
0.152400
 41
0.152400
 42
0.000000
  0
SEQEND
  0
POLYLINE
  8
PG_SILKSCREEN_TOP
 66
1
 70
0
 40
0.000000
 41
0.000000
 39
0.000000
  0
VERTEX
  8
PG_SILKSCREEN_TOP
 10
117.228400
 20
99.434600
 40
0.152400
 41
0.152400
 42
0.000000
  0
VERTEX
  8
PG_SILKSCREEN_TOP
 10
116.466400
 20
100.196600
 40
0.152400
 41
0.152400
 42
0.000000
  0
VERTEX
  8
PG_SILKSCREEN_TOP
 10
116.466400
 20
101.212600
 40
0.152400
 41
0.152400
 42
0.000000
  0
VERTEX
  8
PG_SILKSCREEN_TOP
 10
117.228400
 20
101.974600
 40
0.152400
 41
0.152400
 42
0.000000
  0
SEQEND
  0
POLYLINE
  8
PG_SILKSCREEN_TOP
 66
1
 70
0
 40
0.000000
 41
0.000000
 39
0.000000
  0
VERTEX
  8
PG_SILKSCREEN_TOP
 10
118.244400
 20
99.434600
 40
0.152400
 41
0.152400
 42
0.000000
  0
VERTEX
  8
PG_SILKSCREEN_TOP
 10
117.228400
 20
99.434600
 40
0.152400
 41
0.152400
 42
0.000000
  0
SEQEND
  0
POLYLINE
  8
PG_SILKSCREEN_TOP
 66
1
 70
1
 40
0.000000
 41
0.000000
 39
0.000000
  0
VERTEX
  8
PG_SILKSCREEN_TOP
 10
119.006400
 20
109.594600
 40
0.254000
 41
0.254000
 42
0.000000
  0
VERTEX
  8
PG_SILKSCREEN_TOP
 10
119.006400
 20
107.054600
 40
0.254000
 41
0.254000
 42
0.000000
  0
VERTEX
  8
PG_SILKSCREEN_TOP
 10
116.466400
 20
107.054600
 40
0.254000
 41
0.254000
 42
0.000000
  0
VERTEX
  8
PG_SILKSCREEN_TOP
 10
116.466400
 20
109.594600
 40
0.254000
 41
0.254000
 42
0.000000
  0
SEQEND
  0
POLYLINE
  8
PG_SILKSCREEN_TOP
 66
1
 70
0
 40
0.000000
 41
0.000000
 39
0.000000
  0
VERTEX
  8
PG_SILKSCREEN_TOP
 10
117.228400
 20
96.894600
 40
0.152400
 41
0.152400
 42
0.000000
  0
VERTEX
  8
PG_SILKSCREEN_TOP
 10
118.244400
 20
96.894600
 40
0.152400
 41
0.152400
 42
0.000000
  0
VERTEX
  8
PG_SILKSCREEN_TOP
 10
119.006400
 20
97.656600
 40
0.152400
 41
0.152400
 42
0.000000
  0
VERTEX
  8
PG_SILKSCREEN_TOP
 10
119.006400
 20
98.672600
 40
0.152400
 41
0.152400
 42
0.000000
  0
VERTEX
  8
PG_SILKSCREEN_TOP
 10
118.244400
 20
99.434600
 40
0.152400
 41
0.152400
 42
0.000000
  0
VERTEX
  8
PG_SILKSCREEN_TOP
 10
117.228400
 20
99.434600
 40
0.152400
 41
0.152400
 42
0.000000
  0
SEQEND
  0
POLYLINE
  8
PG_SILKSCREEN_TOP
 66
1
 70
0
 40
0.000000
 41
0.000000
 39
0.000000
  0
VERTEX
  8
PG_SILKSCREEN_TOP
 10
119.768400
 20
107.054600
 40
0.152400
 41
0.152400
 42
0.000000
  0
VERTEX
  8
PG_SILKSCREEN_TOP
 10
120.784400
 20
107.054600
 40
0.152400
 41
0.152400
 42
0.000000
  0
VERTEX
  8
PG_SILKSCREEN_TOP
 10
121.546400
 20
107.816600
 40
0.152400
 41
0.152400
 42
0.000000
  0
VERTEX
  8
PG_SILKSCREEN_TOP
 10
121.546400
 20
108.832600
 40
0.152400
 41
0.152400
 42
0.000000
  0
VERTEX
  8
PG_SILKSCREEN_TOP
 10
120.784400
 20
109.594600
 40
0.152400
 41
0.152400
 42
0.000000
  0
VERTEX
  8
PG_SILKSCREEN_TOP
 10
119.768400
 20
109.594600
 40
0.152400
 41
0.152400
 42
0.000000
  0
SEQEND
  0
POLYLINE
  8
PG_SILKSCREEN_TOP
 66
1
 70
0
 40
0.000000
 41
0.000000
 39
0.000000
  0
VERTEX
  8
PG_SILKSCREEN_TOP
 10
119.768400
 20
104.514600
 40
0.152400
 41
0.152400
 42
0.000000
  0
VERTEX
  8
PG_SILKSCREEN_TOP
 10
120.784400
 20
104.514600
 40
0.152400
 41
0.152400
 42
0.000000
  0
VERTEX
  8
PG_SILKSCREEN_TOP
 10
121.546400
 20
105.276600
 40
0.152400
 41
0.152400
 42
0.000000
  0
VERTEX
  8
PG_SILKSCREEN_TOP
 10
121.546400
 20
106.292600
 40
0.152400
 41
0.152400
 42
0.000000
  0
VERTEX
  8
PG_SILKSCREEN_TOP
 10
120.784400
 20
107.054600
 40
0.152400
 41
0.152400
 42
0.000000
  0
VERTEX
  8
PG_SILKSCREEN_TOP
 10
119.768400
 20
107.054600
 40
0.152400
 41
0.152400
 42
0.000000
  0
SEQEND
  0
POLYLINE
  8
PG_SILKSCREEN_TOP
 66
1
 70
0
 40
0.000000
 41
0.000000
 39
0.000000
  0
VERTEX
  8
PG_SILKSCREEN_TOP
 10
119.768400
 20
101.974600
 40
0.152400
 41
0.152400
 42
0.000000
  0
VERTEX
  8
PG_SILKSCREEN_TOP
 10
120.784400
 20
101.974600
 40
0.152400
 41
0.152400
 42
0.000000
  0
VERTEX
  8
PG_SILKSCREEN_TOP
 10
121.546400
 20
102.736600
 40
0.152400
 41
0.152400
 42
0.000000
  0
VERTEX
  8
PG_SILKSCREEN_TOP
 10
121.546400
 20
103.752600
 40
0.152400
 41
0.152400
 42
0.000000
  0
VERTEX
  8
PG_SILKSCREEN_TOP
 10
120.784400
 20
104.514600
 40
0.152400
 41
0.152400
 42
0.000000
  0
VERTEX
  8
PG_SILKSCREEN_TOP
 10
119.768400
 20
104.514600
 40
0.152400
 41
0.152400
 42
0.000000
  0
SEQEND
  0
POLYLINE
  8
PG_SILKSCREEN_TOP
 66
1
 70
0
 40
0.000000
 41
0.000000
 39
0.000000
  0
VERTEX
  8
PG_SILKSCREEN_TOP
 10
119.768400
 20
99.434600
 40
0.152400
 41
0.152400
 42
0.000000
  0
VERTEX
  8
PG_SILKSCREEN_TOP
 10
120.784400
 20
99.434600
 40
0.152400
 41
0.152400
 42
0.000000
  0
VERTEX
  8
PG_SILKSCREEN_TOP
 10
121.546400
 20
100.196600
 40
0.152400
 41
0.152400
 42
0.000000
  0
VERTEX
  8
PG_SILKSCREEN_TOP
 10
121.546400
 20
101.212600
 40
0.152400
 41
0.152400
 42
0.000000
  0
VERTEX
  8
PG_SILKSCREEN_TOP
 10
120.784400
 20
101.974600
 40
0.152400
 41
0.152400
 42
0.000000
  0
VERTEX
  8
PG_SILKSCREEN_TOP
 10
119.768400
 20
101.974600
 40
0.152400
 41
0.152400
 42
0.000000
  0
SEQEND
  0
POLYLINE
  8
PG_SILKSCREEN_TOP
 66
1
 70
0
 40
0.000000
 41
0.000000
 39
0.000000
  0
VERTEX
  8
PG_SILKSCREEN_TOP
 10
119.768400
 20
96.894600
 40
0.152400
 41
0.152400
 42
0.000000
  0
VERTEX
  8
PG_SILKSCREEN_TOP
 10
120.784400
 20
96.894600
 40
0.152400
 41
0.152400
 42
0.000000
  0
VERTEX
  8
PG_SILKSCREEN_TOP
 10
121.546400
 20
97.656600
 40
0.152400
 41
0.152400
 42
0.000000
  0
VERTEX
  8
PG_SILKSCREEN_TOP
 10
121.546400
 20
98.672600
 40
0.152400
 41
0.152400
 42
0.000000
  0
VERTEX
  8
PG_SILKSCREEN_TOP
 10
120.784400
 20
99.434600
 40
0.152400
 41
0.152400
 42
0.000000
  0
VERTEX
  8
PG_SILKSCREEN_TOP
 10
119.768400
 20
99.434600
 40
0.152400
 41
0.152400
 42
0.000000
  0
SEQEND
  0
POLYLINE
  8
PG_SILKSCREEN_TOP
 66
1
 70
0
 40
0.000000
 41
0.000000
 39
0.000000
  0
VERTEX
  8
PG_SILKSCREEN_TOP
 10
117.228400
 20
96.894600
 40
0.152400
 41
0.152400
 42
0.000000
  0
VERTEX
  8
PG_SILKSCREEN_TOP
 10
116.466400
 20
97.656600
 40
0.152400
 41
0.152400
 42
0.000000
  0
VERTEX
  8
PG_SILKSCREEN_TOP
 10
116.466400
 20
98.672600
 40
0.152400
 41
0.152400
 42
0.000000
  0
VERTEX
  8
PG_SILKSCREEN_TOP
 10
117.228400
 20
99.434600
 40
0.152400
 41
0.152400
 42
0.000000
  0
SEQEND
  0
POLYLINE
  8
PG_SILKSCREEN_TOP
 66
1
 70
0
 40
0.000000
 41
0.000000
 39
0.000000
  0
VERTEX
  8
PG_SILKSCREEN_TOP
 10
119.768400
 20
107.054600
 40
0.152400
 41
0.152400
 42
0.000000
  0
VERTEX
  8
PG_SILKSCREEN_TOP
 10
119.006400
 20
107.816600
 40
0.152400
 41
0.152400
 42
0.000000
  0
VERTEX
  8
PG_SILKSCREEN_TOP
 10
119.006400
 20
108.832600
 40
0.152400
 41
0.152400
 42
0.000000
  0
VERTEX
  8
PG_SILKSCREEN_TOP
 10
119.768400
 20
109.594600
 40
0.152400
 41
0.152400
 42
0.000000
  0
SEQEND
  0
POLYLINE
  8
PG_SILKSCREEN_TOP
 66
1
 70
0
 40
0.000000
 41
0.000000
 39
0.000000
  0
VERTEX
  8
PG_SILKSCREEN_TOP
 10
119.768400
 20
104.514600
 40
0.152400
 41
0.152400
 42
0.000000
  0
VERTEX
  8
PG_SILKSCREEN_TOP
 10
119.006400
 20
105.276600
 40
0.152400
 41
0.152400
 42
0.000000
  0
VERTEX
  8
PG_SILKSCREEN_TOP
 10
119.006400
 20
106.292600
 40
0.152400
 41
0.152400
 42
0.000000
  0
VERTEX
  8
PG_SILKSCREEN_TOP
 10
119.768400
 20
107.054600
 40
0.152400
 41
0.152400
 42
0.000000
  0
SEQEND
  0
POLYLINE
  8
PG_SILKSCREEN_TOP
 66
1
 70
0
 40
0.000000
 41
0.000000
 39
0.000000
  0
VERTEX
  8
PG_SILKSCREEN_TOP
 10
119.768400
 20
101.974600
 40
0.152400
 41
0.152400
 42
0.000000
  0
VERTEX
  8
PG_SILKSCREEN_TOP
 10
119.006400
 20
102.736600
 40
0.152400
 41
0.152400
 42
0.000000
  0
VERTEX
  8
PG_SILKSCREEN_TOP
 10
119.006400
 20
103.752600
 40
0.152400
 41
0.152400
 42
0.000000
  0
VERTEX
  8
PG_SILKSCREEN_TOP
 10
119.768400
 20
104.514600
 40
0.152400
 41
0.152400
 42
0.000000
  0
SEQEND
  0
POLYLINE
  8
PG_SILKSCREEN_TOP
 66
1
 70
0
 40
0.000000
 41
0.000000
 39
0.000000
  0
VERTEX
  8
PG_SILKSCREEN_TOP
 10
119.768400
 20
99.434600
 40
0.152400
 41
0.152400
 42
0.000000
  0
VERTEX
  8
PG_SILKSCREEN_TOP
 10
119.006400
 20
100.196600
 40
0.152400
 41
0.152400
 42
0.000000
  0
VERTEX
  8
PG_SILKSCREEN_TOP
 10
119.006400
 20
101.212600
 40
0.152400
 41
0.152400
 42
0.000000
  0
VERTEX
  8
PG_SILKSCREEN_TOP
 10
119.768400
 20
101.974600
 40
0.152400
 41
0.152400
 42
0.000000
  0
SEQEND
  0
POLYLINE
  8
PG_SILKSCREEN_TOP
 66
1
 70
0
 40
0.000000
 41
0.000000
 39
0.000000
  0
VERTEX
  8
PG_SILKSCREEN_TOP
 10
119.768400
 20
96.894600
 40
0.152400
 41
0.152400
 42
0.000000
  0
VERTEX
  8
PG_SILKSCREEN_TOP
 10
119.006400
 20
97.656600
 40
0.152400
 41
0.152400
 42
0.000000
  0
VERTEX
  8
PG_SILKSCREEN_TOP
 10
119.006400
 20
98.672600
 40
0.152400
 41
0.152400
 42
0.000000
  0
VERTEX
  8
PG_SILKSCREEN_TOP
 10
119.768400
 20
99.434600
 40
0.152400
 41
0.152400
 42
0.000000
  0
SEQEND
  0
POLYLINE
  8
PG_SILKSCREEN_TOP
 66
1
 70
0
 40
0.000000
 41
0.000000
 39
0.000000
  0
VERTEX
  8
PG_SILKSCREEN_TOP
 10
119.768400
 20
94.354600
 40
0.152400
 41
0.152400
 42
0.000000
  0
VERTEX
  8
PG_SILKSCREEN_TOP
 10
120.784400
 20
94.354600
 40
0.152400
 41
0.152400
 42
0.000000
  0
VERTEX
  8
PG_SILKSCREEN_TOP
 10
121.546400
 20
95.116600
 40
0.152400
 41
0.152400
 42
0.000000
  0
VERTEX
  8
PG_SILKSCREEN_TOP
 10
121.546400
 20
96.132600
 40
0.152400
 41
0.152400
 42
0.000000
  0
VERTEX
  8
PG_SILKSCREEN_TOP
 10
120.784400
 20
96.894600
 40
0.152400
 41
0.152400
 42
0.000000
  0
VERTEX
  8
PG_SILKSCREEN_TOP
 10
119.768400
 20
96.894600
 40
0.152400
 41
0.152400
 42
0.000000
  0
SEQEND
  0
POLYLINE
  8
PG_SILKSCREEN_TOP
 66
1
 70
0
 40
0.000000
 41
0.000000
 39
0.000000
  0
VERTEX
  8
PG_SILKSCREEN_TOP
 10
117.228400
 20
94.354600
 40
0.152400
 41
0.152400
 42
0.000000
  0
VERTEX
  8
PG_SILKSCREEN_TOP
 10
118.244400
 20
94.354600
 40
0.152400
 41
0.152400
 42
0.000000
  0
VERTEX
  8
PG_SILKSCREEN_TOP
 10
119.006400
 20
95.116600
 40
0.152400
 41
0.152400
 42
0.000000
  0
VERTEX
  8
PG_SILKSCREEN_TOP
 10
119.006400
 20
96.132600
 40
0.152400
 41
0.152400
 42
0.000000
  0
VERTEX
  8
PG_SILKSCREEN_TOP
 10
118.244400
 20
96.894600
 40
0.152400
 41
0.152400
 42
0.000000
  0
VERTEX
  8
PG_SILKSCREEN_TOP
 10
117.228400
 20
96.894600
 40
0.152400
 41
0.152400
 42
0.000000
  0
SEQEND
  0
POLYLINE
  8
PG_SILKSCREEN_TOP
 66
1
 70
0
 40
0.000000
 41
0.000000
 39
0.000000
  0
VERTEX
  8
PG_SILKSCREEN_TOP
 10
119.768400
 20
94.354600
 40
0.152400
 41
0.152400
 42
0.000000
  0
VERTEX
  8
PG_SILKSCREEN_TOP
 10
119.006400
 20
95.116600
 40
0.152400
 41
0.152400
 42
0.000000
  0
VERTEX
  8
PG_SILKSCREEN_TOP
 10
119.006400
 20
96.132600
 40
0.152400
 41
0.152400
 42
0.000000
  0
VERTEX
  8
PG_SILKSCREEN_TOP
 10
119.768400
 20
96.894600
 40
0.152400
 41
0.152400
 42
0.000000
  0
SEQEND
  0
POLYLINE
  8
PG_SILKSCREEN_TOP
 66
1
 70
0
 40
0.000000
 41
0.000000
 39
0.000000
  0
VERTEX
  8
PG_SILKSCREEN_TOP
 10
117.228400
 20
94.354600
 40
0.152400
 41
0.152400
 42
0.000000
  0
VERTEX
  8
PG_SILKSCREEN_TOP
 10
116.466400
 20
95.116600
 40
0.152400
 41
0.152400
 42
0.000000
  0
VERTEX
  8
PG_SILKSCREEN_TOP
 10
116.466400
 20
96.132600
 40
0.152400
 41
0.152400
 42
0.000000
  0
VERTEX
  8
PG_SILKSCREEN_TOP
 10
117.228400
 20
96.894600
 40
0.152400
 41
0.152400
 42
0.000000
  0
SEQEND
  0
POLYLINE
  8
PG_SILKSCREEN_TOP
 66
1
 70
0
 40
0.000000
 41
0.000000
 39
0.000000
  0
VERTEX
  8
PG_SILKSCREEN_TOP
 10
116.466400
 20
109.086600
 40
0.254000
 41
0.254000
 42
0.000000
  0
VERTEX
  8
PG_SILKSCREEN_TOP
 10
115.704400
 20
109.086600
 40
0.254000
 41
0.254000
 42
0.000000
  0
VERTEX
  8
PG_SILKSCREEN_TOP
 10
115.704400
 20
107.562600
 40
0.254000
 41
0.254000
 42
0.000000
  0
VERTEX
  8
PG_SILKSCREEN_TOP
 10
116.466400
 20
107.562600
 40
0.254000
 41
0.254000
 42
0.000000
  0
SEQEND
  0
POLYLINE
  8
PIN_TOP
 66
1
 70
1
 40
0.000000
 41
0.000000
 39
0.000000
  0
VERTEX
  8
PIN_TOP
 10
60.912000
 20
102.546800
 40
0.000000
 41
0.000000
 42
0.000000
  0
VERTEX
  8
PIN_TOP
 10
59.388000
 20
102.546800
 40
0.000000
 41
0.000000
 42
0.000000
  0
VERTEX
  8
PIN_TOP
 10
59.388000
 20
102.953200
 40
0.000000
 41
0.000000
 42
0.000000
  0
VERTEX
  8
PIN_TOP
 10
60.912000
 20
102.953200
 40
0.000000
 41
0.000000
 42
0.000000
  0
SEQEND
  0
POLYLINE
  8
PIN_TOP
 66
1
 70
1
 40
0.000000
 41
0.000000
 39
0.000000
  0
VERTEX
  8
PIN_TOP
 10
60.912000
 20
103.546800
 40
0.000000
 41
0.000000
 42
0.000000
  0
VERTEX
  8
PIN_TOP
 10
59.388000
 20
103.546800
 40
0.000000
 41
0.000000
 42
0.000000
  0
VERTEX
  8
PIN_TOP
 10
59.388000
 20
103.953200
 40
0.000000
 41
0.000000
 42
0.000000
  0
VERTEX
  8
PIN_TOP
 10
60.912000
 20
103.953200
 40
0.000000
 41
0.000000
 42
0.000000
  0
SEQEND
  0
POLYLINE
  8
PIN_TOP
 66
1
 70
1
 40
0.000000
 41
0.000000
 39
0.000000
  0
VERTEX
  8
PIN_TOP
 10
60.912000
 20
104.546800
 40
0.000000
 41
0.000000
 42
0.000000
  0
VERTEX
  8
PIN_TOP
 10
59.388000
 20
104.546800
 40
0.000000
 41
0.000000
 42
0.000000
  0
VERTEX
  8
PIN_TOP
 10
59.388000
 20
104.953200
 40
0.000000
 41
0.000000
 42
0.000000
  0
VERTEX
  8
PIN_TOP
 10
60.912000
 20
104.953200
 40
0.000000
 41
0.000000
 42
0.000000
  0
SEQEND
  0
POLYLINE
  8
PIN_TOP
 66
1
 70
1
 40
0.000000
 41
0.000000
 39
0.000000
  0
VERTEX
  8
PIN_TOP
 10
60.912000
 20
105.546800
 40
0.000000
 41
0.000000
 42
0.000000
  0
VERTEX
  8
PIN_TOP
 10
59.388000
 20
105.546800
 40
0.000000
 41
0.000000
 42
0.000000
  0
VERTEX
  8
PIN_TOP
 10
59.388000
 20
105.953200
 40
0.000000
 41
0.000000
 42
0.000000
  0
VERTEX
  8
PIN_TOP
 10
60.912000
 20
105.953200
 40
0.000000
 41
0.000000
 42
0.000000
  0
SEQEND
  0
POLYLINE
  8
PIN_TOP
 66
1
 70
1
 40
0.000000
 41
0.000000
 39
0.000000
  0
VERTEX
  8
PIN_TOP
 10
60.912000
 20
106.546800
 40
0.000000
 41
0.000000
 42
0.000000
  0
VERTEX
  8
PIN_TOP
 10
59.388000
 20
106.546800
 40
0.000000
 41
0.000000
 42
0.000000
  0
VERTEX
  8
PIN_TOP
 10
59.388000
 20
106.953200
 40
0.000000
 41
0.000000
 42
0.000000
  0
VERTEX
  8
PIN_TOP
 10
60.912000
 20
106.953200
 40
0.000000
 41
0.000000
 42
0.000000
  0
SEQEND
  0
POLYLINE
  8
PIN_TOP
 66
1
 70
1
 40
0.000000
 41
0.000000
 39
0.000000
  0
VERTEX
  8
PIN_TOP
 10
60.912000
 20
107.546800
 40
0.000000
 41
0.000000
 42
0.000000
  0
VERTEX
  8
PIN_TOP
 10
59.388000
 20
107.546800
 40
0.000000
 41
0.000000
 42
0.000000
  0
VERTEX
  8
PIN_TOP
 10
59.388000
 20
107.953200
 40
0.000000
 41
0.000000
 42
0.000000
  0
VERTEX
  8
PIN_TOP
 10
60.912000
 20
107.953200
 40
0.000000
 41
0.000000
 42
0.000000
  0
SEQEND
  0
POLYLINE
  8
PIN_TOP
 66
1
 70
1
 40
0.000000
 41
0.000000
 39
0.000000
  0
VERTEX
  8
PIN_TOP
 10
60.912000
 20
101.546800
 40
0.000000
 41
0.000000
 42
0.000000
  0
VERTEX
  8
PIN_TOP
 10
59.388000
 20
101.546800
 40
0.000000
 41
0.000000
 42
0.000000
  0
VERTEX
  8
PIN_TOP
 10
59.388000
 20
101.953200
 40
0.000000
 41
0.000000
 42
0.000000
  0
VERTEX
  8
PIN_TOP
 10
60.912000
 20
101.953200
 40
0.000000
 41
0.000000
 42
0.000000
  0
SEQEND
  0
POLYLINE
  8
PIN_TOP
 66
1
 70
1
 40
0.000000
 41
0.000000
 39
0.000000
  0
VERTEX
  8
PIN_TOP
 10
60.912000
 20
100.546800
 40
0.000000
 41
0.000000
 42
0.000000
  0
VERTEX
  8
PIN_TOP
 10
59.388000
 20
100.546800
 40
0.000000
 41
0.000000
 42
0.000000
  0
VERTEX
  8
PIN_TOP
 10
59.388000
 20
100.953200
 40
0.000000
 41
0.000000
 42
0.000000
  0
VERTEX
  8
PIN_TOP
 10
60.912000
 20
100.953200
 40
0.000000
 41
0.000000
 42
0.000000
  0
SEQEND
  0
POLYLINE
  8
PIN_TOP
 66
1
 70
1
 40
0.000000
 41
0.000000
 39
0.000000
  0
VERTEX
  8
PIN_TOP
 10
60.912000
 20
99.546800
 40
0.000000
 41
0.000000
 42
0.000000
  0
VERTEX
  8
PIN_TOP
 10
59.388000
 20
99.546800
 40
0.000000
 41
0.000000
 42
0.000000
  0
VERTEX
  8
PIN_TOP
 10
59.388000
 20
99.953200
 40
0.000000
 41
0.000000
 42
0.000000
  0
VERTEX
  8
PIN_TOP
 10
60.912000
 20
99.953200
 40
0.000000
 41
0.000000
 42
0.000000
  0
SEQEND
  0
POLYLINE
  8
PIN_TOP
 66
1
 70
1
 40
0.000000
 41
0.000000
 39
0.000000
  0
VERTEX
  8
PIN_TOP
 10
60.912000
 20
98.546800
 40
0.000000
 41
0.000000
 42
0.000000
  0
VERTEX
  8
PIN_TOP
 10
59.388000
 20
98.546800
 40
0.000000
 41
0.000000
 42
0.000000
  0
VERTEX
  8
PIN_TOP
 10
59.388000
 20
98.953200
 40
0.000000
 41
0.000000
 42
0.000000
  0
VERTEX
  8
PIN_TOP
 10
60.912000
 20
98.953200
 40
0.000000
 41
0.000000
 42
0.000000
  0
SEQEND
  0
POLYLINE
  8
PIN_TOP
 66
1
 70
1
 40
0.000000
 41
0.000000
 39
0.000000
  0
VERTEX
  8
PIN_TOP
 10
60.912000
 20
97.546800
 40
0.000000
 41
0.000000
 42
0.000000
  0
VERTEX
  8
PIN_TOP
 10
59.388000
 20
97.546800
 40
0.000000
 41
0.000000
 42
0.000000
  0
VERTEX
  8
PIN_TOP
 10
59.388000
 20
97.953200
 40
0.000000
 41
0.000000
 42
0.000000
  0
VERTEX
  8
PIN_TOP
 10
60.912000
 20
97.953200
 40
0.000000
 41
0.000000
 42
0.000000
  0
SEQEND
  0
POLYLINE
  8
PIN_TOP
 66
1
 70
1
 40
0.000000
 41
0.000000
 39
0.000000
  0
VERTEX
  8
PIN_TOP
 10
60.912000
 20
96.546800
 40
0.000000
 41
0.000000
 42
0.000000
  0
VERTEX
  8
PIN_TOP
 10
59.388000
 20
96.546800
 40
0.000000
 41
0.000000
 42
0.000000
  0
VERTEX
  8
PIN_TOP
 10
59.388000
 20
96.953200
 40
0.000000
 41
0.000000
 42
0.000000
  0
VERTEX
  8
PIN_TOP
 10
60.912000
 20
96.953200
 40
0.000000
 41
0.000000
 42
0.000000
  0
SEQEND
  0
POLYLINE
  8
PIN_TOP
 66
1
 70
1
 40
0.000000
 41
0.000000
 39
0.000000
  0
VERTEX
  8
PIN_TOP
 10
63.312000
 20
103.046800
 40
0.000000
 41
0.000000
 42
0.000000
  0
VERTEX
  8
PIN_TOP
 10
61.788000
 20
103.046800
 40
0.000000
 41
0.000000
 42
0.000000
  0
VERTEX
  8
PIN_TOP
 10
61.788000
 20
103.453200
 40
0.000000
 41
0.000000
 42
0.000000
  0
VERTEX
  8
PIN_TOP
 10
63.312000
 20
103.453200
 40
0.000000
 41
0.000000
 42
0.000000
  0
SEQEND
  0
POLYLINE
  8
PIN_TOP
 66
1
 70
1
 40
0.000000
 41
0.000000
 39
0.000000
  0
VERTEX
  8
PIN_TOP
 10
63.312000
 20
104.046800
 40
0.000000
 41
0.000000
 42
0.000000
  0
VERTEX
  8
PIN_TOP
 10
61.788000
 20
104.046800
 40
0.000000
 41
0.000000
 42
0.000000
  0
VERTEX
  8
PIN_TOP
 10
61.788000
 20
104.453200
 40
0.000000
 41
0.000000
 42
0.000000
  0
VERTEX
  8
PIN_TOP
 10
63.312000
 20
104.453200
 40
0.000000
 41
0.000000
 42
0.000000
  0
SEQEND
  0
POLYLINE
  8
PIN_TOP
 66
1
 70
1
 40
0.000000
 41
0.000000
 39
0.000000
  0
VERTEX
  8
PIN_TOP
 10
63.312000
 20
105.046800
 40
0.000000
 41
0.000000
 42
0.000000
  0
VERTEX
  8
PIN_TOP
 10
61.788000
 20
105.046800
 40
0.000000
 41
0.000000
 42
0.000000
  0
VERTEX
  8
PIN_TOP
 10
61.788000
 20
105.453200
 40
0.000000
 41
0.000000
 42
0.000000
  0
VERTEX
  8
PIN_TOP
 10
63.312000
 20
105.453200
 40
0.000000
 41
0.000000
 42
0.000000
  0
SEQEND
  0
POLYLINE
  8
PIN_TOP
 66
1
 70
1
 40
0.000000
 41
0.000000
 39
0.000000
  0
VERTEX
  8
PIN_TOP
 10
63.312000
 20
106.046800
 40
0.000000
 41
0.000000
 42
0.000000
  0
VERTEX
  8
PIN_TOP
 10
61.788000
 20
106.046800
 40
0.000000
 41
0.000000
 42
0.000000
  0
VERTEX
  8
PIN_TOP
 10
61.788000
 20
106.453200
 40
0.000000
 41
0.000000
 42
0.000000
  0
VERTEX
  8
PIN_TOP
 10
63.312000
 20
106.453200
 40
0.000000
 41
0.000000
 42
0.000000
  0
SEQEND
  0
POLYLINE
  8
PIN_TOP
 66
1
 70
1
 40
0.000000
 41
0.000000
 39
0.000000
  0
VERTEX
  8
PIN_TOP
 10
63.312000
 20
107.046800
 40
0.000000
 41
0.000000
 42
0.000000
  0
VERTEX
  8
PIN_TOP
 10
61.788000
 20
107.046800
 40
0.000000
 41
0.000000
 42
0.000000
  0
VERTEX
  8
PIN_TOP
 10
61.788000
 20
107.453200
 40
0.000000
 41
0.000000
 42
0.000000
  0
VERTEX
  8
PIN_TOP
 10
63.312000
 20
107.453200
 40
0.000000
 41
0.000000
 42
0.000000
  0
SEQEND
  0
POLYLINE
  8
PIN_TOP
 66
1
 70
1
 40
0.000000
 41
0.000000
 39
0.000000
  0
VERTEX
  8
PIN_TOP
 10
63.312000
 20
102.046800
 40
0.000000
 41
0.000000
 42
0.000000
  0
VERTEX
  8
PIN_TOP
 10
61.788000
 20
102.046800
 40
0.000000
 41
0.000000
 42
0.000000
  0
VERTEX
  8
PIN_TOP
 10
61.788000
 20
102.453200
 40
0.000000
 41
0.000000
 42
0.000000
  0
VERTEX
  8
PIN_TOP
 10
63.312000
 20
102.453200
 40
0.000000
 41
0.000000
 42
0.000000
  0
SEQEND
  0
POLYLINE
  8
PIN_TOP
 66
1
 70
1
 40
0.000000
 41
0.000000
 39
0.000000
  0
VERTEX
  8
PIN_TOP
 10
63.312000
 20
101.046800
 40
0.000000
 41
0.000000
 42
0.000000
  0
VERTEX
  8
PIN_TOP
 10
61.788000
 20
101.046800
 40
0.000000
 41
0.000000
 42
0.000000
  0
VERTEX
  8
PIN_TOP
 10
61.788000
 20
101.453200
 40
0.000000
 41
0.000000
 42
0.000000
  0
VERTEX
  8
PIN_TOP
 10
63.312000
 20
101.453200
 40
0.000000
 41
0.000000
 42
0.000000
  0
SEQEND
  0
POLYLINE
  8
PIN_TOP
 66
1
 70
1
 40
0.000000
 41
0.000000
 39
0.000000
  0
VERTEX
  8
PIN_TOP
 10
63.312000
 20
100.046800
 40
0.000000
 41
0.000000
 42
0.000000
  0
VERTEX
  8
PIN_TOP
 10
61.788000
 20
100.046800
 40
0.000000
 41
0.000000
 42
0.000000
  0
VERTEX
  8
PIN_TOP
 10
61.788000
 20
100.453200
 40
0.000000
 41
0.000000
 42
0.000000
  0
VERTEX
  8
PIN_TOP
 10
63.312000
 20
100.453200
 40
0.000000
 41
0.000000
 42
0.000000
  0
SEQEND
  0
POLYLINE
  8
PIN_TOP
 66
1
 70
1
 40
0.000000
 41
0.000000
 39
0.000000
  0
VERTEX
  8
PIN_TOP
 10
63.312000
 20
99.046800
 40
0.000000
 41
0.000000
 42
0.000000
  0
VERTEX
  8
PIN_TOP
 10
61.788000
 20
99.046800
 40
0.000000
 41
0.000000
 42
0.000000
  0
VERTEX
  8
PIN_TOP
 10
61.788000
 20
99.453200
 40
0.000000
 41
0.000000
 42
0.000000
  0
VERTEX
  8
PIN_TOP
 10
63.312000
 20
99.453200
 40
0.000000
 41
0.000000
 42
0.000000
  0
SEQEND
  0
POLYLINE
  8
PIN_TOP
 66
1
 70
1
 40
0.000000
 41
0.000000
 39
0.000000
  0
VERTEX
  8
PIN_TOP
 10
63.312000
 20
98.046800
 40
0.000000
 41
0.000000
 42
0.000000
  0
VERTEX
  8
PIN_TOP
 10
61.788000
 20
98.046800
 40
0.000000
 41
0.000000
 42
0.000000
  0
VERTEX
  8
PIN_TOP
 10
61.788000
 20
98.453200
 40
0.000000
 41
0.000000
 42
0.000000
  0
VERTEX
  8
PIN_TOP
 10
63.312000
 20
98.453200
 40
0.000000
 41
0.000000
 42
0.000000
  0
SEQEND
  0
POLYLINE
  8
PIN_TOP
 66
1
 70
1
 40
0.000000
 41
0.000000
 39
0.000000
  0
VERTEX
  8
PIN_TOP
 10
63.312000
 20
97.046800
 40
0.000000
 41
0.000000
 42
0.000000
  0
VERTEX
  8
PIN_TOP
 10
61.788000
 20
97.046800
 40
0.000000
 41
0.000000
 42
0.000000
  0
VERTEX
  8
PIN_TOP
 10
61.788000
 20
97.453200
 40
0.000000
 41
0.000000
 42
0.000000
  0
VERTEX
  8
PIN_TOP
 10
63.312000
 20
97.453200
 40
0.000000
 41
0.000000
 42
0.000000
  0
SEQEND
  0
POLYLINE
  8
PIN_TOP
 66
1
 70
1
 40
0.000000
 41
0.000000
 39
0.000000
  0
VERTEX
  8
PIN_TOP
 10
63.312000
 20
96.046800
 40
0.000000
 41
0.000000
 42
0.000000
  0
VERTEX
  8
PIN_TOP
 10
61.788000
 20
96.046800
 40
0.000000
 41
0.000000
 42
0.000000
  0
VERTEX
  8
PIN_TOP
 10
61.788000
 20
96.453200
 40
0.000000
 41
0.000000
 42
0.000000
  0
VERTEX
  8
PIN_TOP
 10
63.312000
 20
96.453200
 40
0.000000
 41
0.000000
 42
0.000000
  0
SEQEND
  0
POLYLINE
  8
PIN_TOP
 66
1
 70
1
 40
0.000000
 41
0.000000
 39
0.000000
  0
VERTEX
  8
PIN_TOP
 10
62.797800
 20
110.562000
 40
0.000000
 41
0.000000
 42
0.000000
  0
VERTEX
  8
PIN_TOP
 10
62.797800
 20
109.038000
 40
0.000000
 41
0.000000
 42
0.000000
  0
VERTEX
  8
PIN_TOP
 10
59.902200
 20
109.038000
 40
0.000000
 41
0.000000
 42
0.000000
  0
VERTEX
  8
PIN_TOP
 10
59.902200
 20
110.562000
 40
0.000000
 41
0.000000
 42
0.000000
  0
SEQEND
  0
POLYLINE
  8
PIN_TOP
 66
1
 70
1
 40
0.000000
 41
0.000000
 39
0.000000
  0
VERTEX
  8
PIN_TOP
 10
62.797800
 20
94.962000
 40
0.000000
 41
0.000000
 42
0.000000
  0
VERTEX
  8
PIN_TOP
 10
62.797800
 20
93.438000
 40
0.000000
 41
0.000000
 42
0.000000
  0
VERTEX
  8
PIN_TOP
 10
59.902200
 20
93.438000
 40
0.000000
 41
0.000000
 42
0.000000
  0
VERTEX
  8
PIN_TOP
 10
59.902200
 20
94.962000
 40
0.000000
 41
0.000000
 42
0.000000
  0
SEQEND
  0
POLYLINE
  8
PG_SILKSCREEN_TOP
 66
1
 70
0
 40
0.000000
 41
0.000000
 39
0.000000
  0
VERTEX
  8
PG_SILKSCREEN_TOP
 10
59.650000
 20
96.400000
 40
0.200000
 41
0.200000
 42
0.000000
  0
VERTEX
  8
PG_SILKSCREEN_TOP
 10
59.650000
 20
93.200000
 40
0.200000
 41
0.200000
 42
0.000000
  0
VERTEX
  8
PG_SILKSCREEN_TOP
 10
63.050000
 20
93.200000
 40
0.200000
 41
0.200000
 42
0.000000
  0
VERTEX
  8
PG_SILKSCREEN_TOP
 10
63.050000
 20
95.800000
 40
0.200000
 41
0.200000
 42
0.000000
  0
SEQEND
  0
POLYLINE
  8
PG_SILKSCREEN_TOP
 66
1
 70
0
 40
0.000000
 41
0.000000
 39
0.000000
  0
VERTEX
  8
PG_SILKSCREEN_TOP
 10
63.050000
 20
107.700000
 40
0.200000
 41
0.200000
 42
0.000000
  0
VERTEX
  8
PG_SILKSCREEN_TOP
 10
63.050000
 20
110.800000
 40
0.200000
 41
0.200000
 42
0.000000
  0
VERTEX
  8
PG_SILKSCREEN_TOP
 10
59.650000
 20
110.800000
 40
0.200000
 41
0.200000
 42
0.000000
  0
VERTEX
  8
PG_SILKSCREEN_TOP
 10
59.650000
 20
108.200000
 40
0.200000
 41
0.200000
 42
0.000000
  0
SEQEND
  0
POLYLINE
  8
PG_SILKSCREEN_TOP
 66
1
 70
0
 40
0.000000
 41
0.000000
 39
0.000000
  0
VERTEX
  8
PG_SILKSCREEN_TOP
 10
61.150000
 20
95.500000
 40
0.200000
 41
0.200000
 42
0.000000
  0
VERTEX
  8
PG_SILKSCREEN_TOP
 10
63.050000
 20
95.500000
 40
0.200000
 41
0.200000
 42
0.000000
  0
SEQEND
  0
POLYLINE
  8
PG_SILKSCREEN_TOP
 66
1
 70
0
 40
0.000000
 41
0.000000
 39
0.000000
  0
VERTEX
  8
PG_SILKSCREEN_TOP
 10
59.650000
 20
109.000000
 40
0.200000
 41
0.200000
 42
0.000000
  0
VERTEX
  8
PG_SILKSCREEN_TOP
 10
58.950000
 20
108.300000
 40
0.200000
 41
0.200000
 42
0.000000
  0
VERTEX
  8
PG_SILKSCREEN_TOP
 10
58.950000
 20
95.600000
 40
0.200000
 41
0.200000
 42
0.000000
  0
VERTEX
  8
PG_SILKSCREEN_TOP
 10
59.650000
 20
94.900000
 40
0.200000
 41
0.200000
 42
0.000000
  0
SEQEND
  0
POLYLINE
  8
PG_SILKSCREEN_TOP
 66
1
 70
0
 40
0.000000
 41
0.000000
 39
0.000000
  0
VERTEX
  8
PG_SILKSCREEN_TOP
 10
61.150000
 20
95.500000
 40
0.200000
 41
0.200000
 42
0.000000
  0
VERTEX
  8
PG_SILKSCREEN_TOP
 10
61.150000
 20
108.500000
 40
0.200000
 41
0.200000
 42
0.000000
  0
VERTEX
  8
PG_SILKSCREEN_TOP
 10
62.950000
 20
108.500000
 40
0.200000
 41
0.200000
 42
0.000000
  0
SEQEND
  0
POLYLINE
  8
PIN_TOP
 66
1
 70
1
 40
0.000000
 41
0.000000
 39
0.000000
  0
VERTEX
  8
PIN_TOP
 10
90.488700
 20
91.905300
 40
0.000000
 41
0.000000
 42
0.000000
  0
VERTEX
  8
PIN_TOP
 10
90.488700
 20
89.365300
 40
0.000000
 41
0.000000
 42
0.000000
  0
VERTEX
  8
PIN_TOP
 10
87.440700
 20
89.365300
 40
0.000000
 41
0.000000
 42
0.000000
  0
VERTEX
  8
PIN_TOP
 10
87.440700
 20
91.905300
 40
0.000000
 41
0.000000
 42
0.000000
  0
SEQEND
  0
POLYLINE
  8
PIN_TOP
 66
1
 70
1
 40
0.000000
 41
0.000000
 39
0.000000
  0
VERTEX
  8
PIN_TOP
 10
115.510200
 20
91.892600
 40
0.000000
 41
0.000000
 42
0.000000
  0
VERTEX
  8
PIN_TOP
 10
115.510200
 20
89.352600
 40
0.000000
 41
0.000000
 42
0.000000
  0
VERTEX
  8
PIN_TOP
 10
112.462200
 20
89.352600
 40
0.000000
 41
0.000000
 42
0.000000
  0
VERTEX
  8
PIN_TOP
 10
112.462200
 20
91.892600
 40
0.000000
 41
0.000000
 42
0.000000
  0
SEQEND
  0
POLYLINE
  8
PIN_TOP
 66
1
 70
1
 40
0.000000
 41
0.000000
 39
0.000000
  0
VERTEX
  8
PIN_TOP
 10
91.872700
 20
94.397100
 40
0.000000
 41
0.000000
 42
0.000000
  0
VERTEX
  8
PIN_TOP
 10
91.872700
 20
92.365100
 40
0.000000
 41
0.000000
 42
0.000000
  0
VERTEX
  8
PIN_TOP
 10
91.567900
 20
92.365100
 40
0.000000
 41
0.000000
 42
0.000000
  0
VERTEX
  8
PIN_TOP
 10
91.567900
 20
94.397100
 40
0.000000
 41
0.000000
 42
0.000000
  0
SEQEND
  0
POLYLINE
  8
PIN_TOP
 66
1
 70
1
 40
0.000000
 41
0.000000
 39
0.000000
  0
VERTEX
  8
PIN_TOP
 10
92.372900
 20
94.397100
 40
0.000000
 41
0.000000
 42
0.000000
  0
VERTEX
  8
PIN_TOP
 10
92.372900
 20
92.365100
 40
0.000000
 41
0.000000
 42
0.000000
  0
VERTEX
  8
PIN_TOP
 10
92.068100
 20
92.365100
 40
0.000000
 41
0.000000
 42
0.000000
  0
VERTEX
  8
PIN_TOP
 10
92.068100
 20
94.397100
 40
0.000000
 41
0.000000
 42
0.000000
  0
SEQEND
  0
POLYLINE
  8
PIN_TOP
 66
1
 70
1
 40
0.000000
 41
0.000000
 39
0.000000
  0
VERTEX
  8
PIN_TOP
 10
92.873000
 20
94.397100
 40
0.000000
 41
0.000000
 42
0.000000
  0
VERTEX
  8
PIN_TOP
 10
92.873000
 20
92.365100
 40
0.000000
 41
0.000000
 42
0.000000
  0
VERTEX
  8
PIN_TOP
 10
92.568200
 20
92.365100
 40
0.000000
 41
0.000000
 42
0.000000
  0
VERTEX
  8
PIN_TOP
 10
92.568200
 20
94.397100
 40
0.000000
 41
0.000000
 42
0.000000
  0
SEQEND
  0
POLYLINE
  8
PIN_TOP
 66
1
 70
1
 40
0.000000
 41
0.000000
 39
0.000000
  0
VERTEX
  8
PIN_TOP
 10
93.373100
 20
94.397100
 40
0.000000
 41
0.000000
 42
0.000000
  0
VERTEX
  8
PIN_TOP
 10
93.373100
 20
92.365100
 40
0.000000
 41
0.000000
 42
0.000000
  0
VERTEX
  8
PIN_TOP
 10
93.068300
 20
92.365100
 40
0.000000
 41
0.000000
 42
0.000000
  0
VERTEX
  8
PIN_TOP
 10
93.068300
 20
94.397100
 40
0.000000
 41
0.000000
 42
0.000000
  0
SEQEND
  0
POLYLINE
  8
PIN_TOP
 66
1
 70
1
 40
0.000000
 41
0.000000
 39
0.000000
  0
VERTEX
  8
PIN_TOP
 10
93.873200
 20
94.397100
 40
0.000000
 41
0.000000
 42
0.000000
  0
VERTEX
  8
PIN_TOP
 10
93.873200
 20
92.365100
 40
0.000000
 41
0.000000
 42
0.000000
  0
VERTEX
  8
PIN_TOP
 10
93.568400
 20
92.365100
 40
0.000000
 41
0.000000
 42
0.000000
  0
VERTEX
  8
PIN_TOP
 10
93.568400
 20
94.397100
 40
0.000000
 41
0.000000
 42
0.000000
  0
SEQEND
  0
POLYLINE
  8
PIN_TOP
 66
1
 70
1
 40
0.000000
 41
0.000000
 39
0.000000
  0
VERTEX
  8
PIN_TOP
 10
94.373400
 20
94.397100
 40
0.000000
 41
0.000000
 42
0.000000
  0
VERTEX
  8
PIN_TOP
 10
94.373400
 20
92.365100
 40
0.000000
 41
0.000000
 42
0.000000
  0
VERTEX
  8
PIN_TOP
 10
94.068600
 20
92.365100
 40
0.000000
 41
0.000000
 42
0.000000
  0
VERTEX
  8
PIN_TOP
 10
94.068600
 20
94.397100
 40
0.000000
 41
0.000000
 42
0.000000
  0
SEQEND
  0
POLYLINE
  8
PIN_TOP
 66
1
 70
1
 40
0.000000
 41
0.000000
 39
0.000000
  0
VERTEX
  8
PIN_TOP
 10
94.873500
 20
94.397100
 40
0.000000
 41
0.000000
 42
0.000000
  0
VERTEX
  8
PIN_TOP
 10
94.873500
 20
92.365100
 40
0.000000
 41
0.000000
 42
0.000000
  0
VERTEX
  8
PIN_TOP
 10
94.568700
 20
92.365100
 40
0.000000
 41
0.000000
 42
0.000000
  0
VERTEX
  8
PIN_TOP
 10
94.568700
 20
94.397100
 40
0.000000
 41
0.000000
 42
0.000000
  0
SEQEND
  0
POLYLINE
  8
PIN_TOP
 66
1
 70
1
 40
0.000000
 41
0.000000
 39
0.000000
  0
VERTEX
  8
PIN_TOP
 10
95.373600
 20
94.397100
 40
0.000000
 41
0.000000
 42
0.000000
  0
VERTEX
  8
PIN_TOP
 10
95.373600
 20
92.365100
 40
0.000000
 41
0.000000
 42
0.000000
  0
VERTEX
  8
PIN_TOP
 10
95.068800
 20
92.365100
 40
0.000000
 41
0.000000
 42
0.000000
  0
VERTEX
  8
PIN_TOP
 10
95.068800
 20
94.397100
 40
0.000000
 41
0.000000
 42
0.000000
  0
SEQEND
  0
POLYLINE
  8
PIN_TOP
 66
1
 70
1
 40
0.000000
 41
0.000000
 39
0.000000
  0
VERTEX
  8
PIN_TOP
 10
95.873700
 20
94.397100
 40
0.000000
 41
0.000000
 42
0.000000
  0
VERTEX
  8
PIN_TOP
 10
95.873700
 20
92.365100
 40
0.000000
 41
0.000000
 42
0.000000
  0
VERTEX
  8
PIN_TOP
 10
95.568900
 20
92.365100
 40
0.000000
 41
0.000000
 42
0.000000
  0
VERTEX
  8
PIN_TOP
 10
95.568900
 20
94.397100
 40
0.000000
 41
0.000000
 42
0.000000
  0
SEQEND
  0
POLYLINE
  8
PIN_TOP
 66
1
 70
1
 40
0.000000
 41
0.000000
 39
0.000000
  0
VERTEX
  8
PIN_TOP
 10
96.373900
 20
94.397100
 40
0.000000
 41
0.000000
 42
0.000000
  0
VERTEX
  8
PIN_TOP
 10
96.373900
 20
92.365100
 40
0.000000
 41
0.000000
 42
0.000000
  0
VERTEX
  8
PIN_TOP
 10
96.069100
 20
92.365100
 40
0.000000
 41
0.000000
 42
0.000000
  0
VERTEX
  8
PIN_TOP
 10
96.069100
 20
94.397100
 40
0.000000
 41
0.000000
 42
0.000000
  0
SEQEND
  0
POLYLINE
  8
PIN_TOP
 66
1
 70
1
 40
0.000000
 41
0.000000
 39
0.000000
  0
VERTEX
  8
PIN_TOP
 10
96.874000
 20
94.397100
 40
0.000000
 41
0.000000
 42
0.000000
  0
VERTEX
  8
PIN_TOP
 10
96.874000
 20
92.365100
 40
0.000000
 41
0.000000
 42
0.000000
  0
VERTEX
  8
PIN_TOP
 10
96.569200
 20
92.365100
 40
0.000000
 41
0.000000
 42
0.000000
  0
VERTEX
  8
PIN_TOP
 10
96.569200
 20
94.397100
 40
0.000000
 41
0.000000
 42
0.000000
  0
SEQEND
  0
POLYLINE
  8
PIN_TOP
 66
1
 70
1
 40
0.000000
 41
0.000000
 39
0.000000
  0
VERTEX
  8
PIN_TOP
 10
97.374100
 20
94.397100
 40
0.000000
 41
0.000000
 42
0.000000
  0
VERTEX
  8
PIN_TOP
 10
97.374100
 20
92.365100
 40
0.000000
 41
0.000000
 42
0.000000
  0
VERTEX
  8
PIN_TOP
 10
97.069300
 20
92.365100
 40
0.000000
 41
0.000000
 42
0.000000
  0
VERTEX
  8
PIN_TOP
 10
97.069300
 20
94.397100
 40
0.000000
 41
0.000000
 42
0.000000
  0
SEQEND
  0
POLYLINE
  8
PIN_TOP
 66
1
 70
1
 40
0.000000
 41
0.000000
 39
0.000000
  0
VERTEX
  8
PIN_TOP
 10
97.874200
 20
94.397100
 40
0.000000
 41
0.000000
 42
0.000000
  0
VERTEX
  8
PIN_TOP
 10
97.874200
 20
92.365100
 40
0.000000
 41
0.000000
 42
0.000000
  0
VERTEX
  8
PIN_TOP
 10
97.569400
 20
92.365100
 40
0.000000
 41
0.000000
 42
0.000000
  0
VERTEX
  8
PIN_TOP
 10
97.569400
 20
94.397100
 40
0.000000
 41
0.000000
 42
0.000000
  0
SEQEND
  0
POLYLINE
  8
PIN_TOP
 66
1
 70
1
 40
0.000000
 41
0.000000
 39
0.000000
  0
VERTEX
  8
PIN_TOP
 10
98.374400
 20
94.397100
 40
0.000000
 41
0.000000
 42
0.000000
  0
VERTEX
  8
PIN_TOP
 10
98.374400
 20
92.365100
 40
0.000000
 41
0.000000
 42
0.000000
  0
VERTEX
  8
PIN_TOP
 10
98.069600
 20
92.365100
 40
0.000000
 41
0.000000
 42
0.000000
  0
VERTEX
  8
PIN_TOP
 10
98.069600
 20
94.397100
 40
0.000000
 41
0.000000
 42
0.000000
  0
SEQEND
  0
POLYLINE
  8
PIN_TOP
 66
1
 70
1
 40
0.000000
 41
0.000000
 39
0.000000
  0
VERTEX
  8
PIN_TOP
 10
98.874500
 20
94.397100
 40
0.000000
 41
0.000000
 42
0.000000
  0
VERTEX
  8
PIN_TOP
 10
98.874500
 20
92.365100
 40
0.000000
 41
0.000000
 42
0.000000
  0
VERTEX
  8
PIN_TOP
 10
98.569700
 20
92.365100
 40
0.000000
 41
0.000000
 42
0.000000
  0
VERTEX
  8
PIN_TOP
 10
98.569700
 20
94.397100
 40
0.000000
 41
0.000000
 42
0.000000
  0
SEQEND
  0
POLYLINE
  8
PIN_TOP
 66
1
 70
1
 40
0.000000
 41
0.000000
 39
0.000000
  0
VERTEX
  8
PIN_TOP
 10
99.374600
 20
94.397100
 40
0.000000
 41
0.000000
 42
0.000000
  0
VERTEX
  8
PIN_TOP
 10
99.374600
 20
92.365100
 40
0.000000
 41
0.000000
 42
0.000000
  0
VERTEX
  8
PIN_TOP
 10
99.069800
 20
92.365100
 40
0.000000
 41
0.000000
 42
0.000000
  0
VERTEX
  8
PIN_TOP
 10
99.069800
 20
94.397100
 40
0.000000
 41
0.000000
 42
0.000000
  0
SEQEND
  0
POLYLINE
  8
PIN_TOP
 66
1
 70
1
 40
0.000000
 41
0.000000
 39
0.000000
  0
VERTEX
  8
PIN_TOP
 10
99.874700
 20
94.397100
 40
0.000000
 41
0.000000
 42
0.000000
  0
VERTEX
  8
PIN_TOP
 10
99.874700
 20
92.365100
 40
0.000000
 41
0.000000
 42
0.000000
  0
VERTEX
  8
PIN_TOP
 10
99.569900
 20
92.365100
 40
0.000000
 41
0.000000
 42
0.000000
  0
VERTEX
  8
PIN_TOP
 10
99.569900
 20
94.397100
 40
0.000000
 41
0.000000
 42
0.000000
  0
SEQEND
  0
POLYLINE
  8
PIN_TOP
 66
1
 70
1
 40
0.000000
 41
0.000000
 39
0.000000
  0
VERTEX
  8
PIN_TOP
 10
100.374900
 20
94.397100
 40
0.000000
 41
0.000000
 42
0.000000
  0
VERTEX
  8
PIN_TOP
 10
100.374900
 20
92.365100
 40
0.000000
 41
0.000000
 42
0.000000
  0
VERTEX
  8
PIN_TOP
 10
100.070100
 20
92.365100
 40
0.000000
 41
0.000000
 42
0.000000
  0
VERTEX
  8
PIN_TOP
 10
100.070100
 20
94.397100
 40
0.000000
 41
0.000000
 42
0.000000
  0
SEQEND
  0
POLYLINE
  8
PIN_TOP
 66
1
 70
1
 40
0.000000
 41
0.000000
 39
0.000000
  0
VERTEX
  8
PIN_TOP
 10
100.875000
 20
94.397100
 40
0.000000
 41
0.000000
 42
0.000000
  0
VERTEX
  8
PIN_TOP
 10
100.875000
 20
92.365100
 40
0.000000
 41
0.000000
 42
0.000000
  0
VERTEX
  8
PIN_TOP
 10
100.570200
 20
92.365100
 40
0.000000
 41
0.000000
 42
0.000000
  0
VERTEX
  8
PIN_TOP
 10
100.570200
 20
94.397100
 40
0.000000
 41
0.000000
 42
0.000000
  0
SEQEND
  0
POLYLINE
  8
PIN_TOP
 66
1
 70
1
 40
0.000000
 41
0.000000
 39
0.000000
  0
VERTEX
  8
PIN_TOP
 10
101.375100
 20
94.397100
 40
0.000000
 41
0.000000
 42
0.000000
  0
VERTEX
  8
PIN_TOP
 10
101.375100
 20
92.365100
 40
0.000000
 41
0.000000
 42
0.000000
  0
VERTEX
  8
PIN_TOP
 10
101.070300
 20
92.365100
 40
0.000000
 41
0.000000
 42
0.000000
  0
VERTEX
  8
PIN_TOP
 10
101.070300
 20
94.397100
 40
0.000000
 41
0.000000
 42
0.000000
  0
SEQEND
  0
POLYLINE
  8
PIN_TOP
 66
1
 70
1
 40
0.000000
 41
0.000000
 39
0.000000
  0
VERTEX
  8
PIN_TOP
 10
101.875200
 20
94.397100
 40
0.000000
 41
0.000000
 42
0.000000
  0
VERTEX
  8
PIN_TOP
 10
101.875200
 20
92.365100
 40
0.000000
 41
0.000000
 42
0.000000
  0
VERTEX
  8
PIN_TOP
 10
101.570400
 20
92.365100
 40
0.000000
 41
0.000000
 42
0.000000
  0
VERTEX
  8
PIN_TOP
 10
101.570400
 20
94.397100
 40
0.000000
 41
0.000000
 42
0.000000
  0
SEQEND
  0
POLYLINE
  8
PIN_TOP
 66
1
 70
1
 40
0.000000
 41
0.000000
 39
0.000000
  0
VERTEX
  8
PIN_TOP
 10
102.375400
 20
94.397100
 40
0.000000
 41
0.000000
 42
0.000000
  0
VERTEX
  8
PIN_TOP
 10
102.375400
 20
92.365100
 40
0.000000
 41
0.000000
 42
0.000000
  0
VERTEX
  8
PIN_TOP
 10
102.070600
 20
92.365100
 40
0.000000
 41
0.000000
 42
0.000000
  0
VERTEX
  8
PIN_TOP
 10
102.070600
 20
94.397100
 40
0.000000
 41
0.000000
 42
0.000000
  0
SEQEND
  0
POLYLINE
  8
PIN_TOP
 66
1
 70
1
 40
0.000000
 41
0.000000
 39
0.000000
  0
VERTEX
  8
PIN_TOP
 10
102.875500
 20
94.397100
 40
0.000000
 41
0.000000
 42
0.000000
  0
VERTEX
  8
PIN_TOP
 10
102.875500
 20
92.365100
 40
0.000000
 41
0.000000
 42
0.000000
  0
VERTEX
  8
PIN_TOP
 10
102.570700
 20
92.365100
 40
0.000000
 41
0.000000
 42
0.000000
  0
VERTEX
  8
PIN_TOP
 10
102.570700
 20
94.397100
 40
0.000000
 41
0.000000
 42
0.000000
  0
SEQEND
  0
POLYLINE
  8
PIN_TOP
 66
1
 70
1
 40
0.000000
 41
0.000000
 39
0.000000
  0
VERTEX
  8
PIN_TOP
 10
103.375600
 20
94.397100
 40
0.000000
 41
0.000000
 42
0.000000
  0
VERTEX
  8
PIN_TOP
 10
103.375600
 20
92.365100
 40
0.000000
 41
0.000000
 42
0.000000
  0
VERTEX
  8
PIN_TOP
 10
103.070800
 20
92.365100
 40
0.000000
 41
0.000000
 42
0.000000
  0
VERTEX
  8
PIN_TOP
 10
103.070800
 20
94.397100
 40
0.000000
 41
0.000000
 42
0.000000
  0
SEQEND
  0
POLYLINE
  8
PIN_TOP
 66
1
 70
1
 40
0.000000
 41
0.000000
 39
0.000000
  0
VERTEX
  8
PIN_TOP
 10
103.875800
 20
94.397100
 40
0.000000
 41
0.000000
 42
0.000000
  0
VERTEX
  8
PIN_TOP
 10
103.875800
 20
92.365100
 40
0.000000
 41
0.000000
 42
0.000000
  0
VERTEX
  8
PIN_TOP
 10
103.571000
 20
92.365100
 40
0.000000
 41
0.000000
 42
0.000000
  0
VERTEX
  8
PIN_TOP
 10
103.571000
 20
94.397100
 40
0.000000
 41
0.000000
 42
0.000000
  0
SEQEND
  0
POLYLINE
  8
PIN_TOP
 66
1
 70
1
 40
0.000000
 41
0.000000
 39
0.000000
  0
VERTEX
  8
PIN_TOP
 10
104.375900
 20
94.397100
 40
0.000000
 41
0.000000
 42
0.000000
  0
VERTEX
  8
PIN_TOP
 10
104.375900
 20
92.365100
 40
0.000000
 41
0.000000
 42
0.000000
  0
VERTEX
  8
PIN_TOP
 10
104.071100
 20
92.365100
 40
0.000000
 41
0.000000
 42
0.000000
  0
VERTEX
  8
PIN_TOP
 10
104.071100
 20
94.397100
 40
0.000000
 41
0.000000
 42
0.000000
  0
SEQEND
  0
POLYLINE
  8
PIN_TOP
 66
1
 70
1
 40
0.000000
 41
0.000000
 39
0.000000
  0
VERTEX
  8
PIN_TOP
 10
104.876000
 20
94.397100
 40
0.000000
 41
0.000000
 42
0.000000
  0
VERTEX
  8
PIN_TOP
 10
104.876000
 20
92.365100
 40
0.000000
 41
0.000000
 42
0.000000
  0
VERTEX
  8
PIN_TOP
 10
104.571200
 20
92.365100
 40
0.000000
 41
0.000000
 42
0.000000
  0
VERTEX
  8
PIN_TOP
 10
104.571200
 20
94.397100
 40
0.000000
 41
0.000000
 42
0.000000
  0
SEQEND
  0
POLYLINE
  8
PIN_TOP
 66
1
 70
1
 40
0.000000
 41
0.000000
 39
0.000000
  0
VERTEX
  8
PIN_TOP
 10
105.376100
 20
94.397100
 40
0.000000
 41
0.000000
 42
0.000000
  0
VERTEX
  8
PIN_TOP
 10
105.376100
 20
92.365100
 40
0.000000
 41
0.000000
 42
0.000000
  0
VERTEX
  8
PIN_TOP
 10
105.071300
 20
92.365100
 40
0.000000
 41
0.000000
 42
0.000000
  0
VERTEX
  8
PIN_TOP
 10
105.071300
 20
94.397100
 40
0.000000
 41
0.000000
 42
0.000000
  0
SEQEND
  0
POLYLINE
  8
PIN_TOP
 66
1
 70
1
 40
0.000000
 41
0.000000
 39
0.000000
  0
VERTEX
  8
PIN_TOP
 10
105.876300
 20
94.397100
 40
0.000000
 41
0.000000
 42
0.000000
  0
VERTEX
  8
PIN_TOP
 10
105.876300
 20
92.365100
 40
0.000000
 41
0.000000
 42
0.000000
  0
VERTEX
  8
PIN_TOP
 10
105.571500
 20
92.365100
 40
0.000000
 41
0.000000
 42
0.000000
  0
VERTEX
  8
PIN_TOP
 10
105.571500
 20
94.397100
 40
0.000000
 41
0.000000
 42
0.000000
  0
SEQEND
  0
POLYLINE
  8
PIN_TOP
 66
1
 70
1
 40
0.000000
 41
0.000000
 39
0.000000
  0
VERTEX
  8
PIN_TOP
 10
106.376400
 20
94.397100
 40
0.000000
 41
0.000000
 42
0.000000
  0
VERTEX
  8
PIN_TOP
 10
106.376400
 20
92.365100
 40
0.000000
 41
0.000000
 42
0.000000
  0
VERTEX
  8
PIN_TOP
 10
106.071600
 20
92.365100
 40
0.000000
 41
0.000000
 42
0.000000
  0
VERTEX
  8
PIN_TOP
 10
106.071600
 20
94.397100
 40
0.000000
 41
0.000000
 42
0.000000
  0
SEQEND
  0
POLYLINE
  8
PIN_TOP
 66
1
 70
1
 40
0.000000
 41
0.000000
 39
0.000000
  0
VERTEX
  8
PIN_TOP
 10
106.876500
 20
94.397100
 40
0.000000
 41
0.000000
 42
0.000000
  0
VERTEX
  8
PIN_TOP
 10
106.876500
 20
92.365100
 40
0.000000
 41
0.000000
 42
0.000000
  0
VERTEX
  8
PIN_TOP
 10
106.571700
 20
92.365100
 40
0.000000
 41
0.000000
 42
0.000000
  0
VERTEX
  8
PIN_TOP
 10
106.571700
 20
94.397100
 40
0.000000
 41
0.000000
 42
0.000000
  0
SEQEND
  0
POLYLINE
  8
PIN_TOP
 66
1
 70
1
 40
0.000000
 41
0.000000
 39
0.000000
  0
VERTEX
  8
PIN_TOP
 10
107.376600
 20
94.397100
 40
0.000000
 41
0.000000
 42
0.000000
  0
VERTEX
  8
PIN_TOP
 10
107.376600
 20
92.365100
 40
0.000000
 41
0.000000
 42
0.000000
  0
VERTEX
  8
PIN_TOP
 10
107.071800
 20
92.365100
 40
0.000000
 41
0.000000
 42
0.000000
  0
VERTEX
  8
PIN_TOP
 10
107.071800
 20
94.397100
 40
0.000000
 41
0.000000
 42
0.000000
  0
SEQEND
  0
POLYLINE
  8
PIN_TOP
 66
1
 70
1
 40
0.000000
 41
0.000000
 39
0.000000
  0
VERTEX
  8
PIN_TOP
 10
107.876800
 20
94.397100
 40
0.000000
 41
0.000000
 42
0.000000
  0
VERTEX
  8
PIN_TOP
 10
107.876800
 20
92.365100
 40
0.000000
 41
0.000000
 42
0.000000
  0
VERTEX
  8
PIN_TOP
 10
107.572000
 20
92.365100
 40
0.000000
 41
0.000000
 42
0.000000
  0
VERTEX
  8
PIN_TOP
 10
107.572000
 20
94.397100
 40
0.000000
 41
0.000000
 42
0.000000
  0
SEQEND
  0
POLYLINE
  8
PIN_TOP
 66
1
 70
1
 40
0.000000
 41
0.000000
 39
0.000000
  0
VERTEX
  8
PIN_TOP
 10
108.376900
 20
94.397100
 40
0.000000
 41
0.000000
 42
0.000000
  0
VERTEX
  8
PIN_TOP
 10
108.376900
 20
92.365100
 40
0.000000
 41
0.000000
 42
0.000000
  0
VERTEX
  8
PIN_TOP
 10
108.072100
 20
92.365100
 40
0.000000
 41
0.000000
 42
0.000000
  0
VERTEX
  8
PIN_TOP
 10
108.072100
 20
94.397100
 40
0.000000
 41
0.000000
 42
0.000000
  0
SEQEND
  0
POLYLINE
  8
PIN_TOP
 66
1
 70
1
 40
0.000000
 41
0.000000
 39
0.000000
  0
VERTEX
  8
PIN_TOP
 10
108.877000
 20
94.397100
 40
0.000000
 41
0.000000
 42
0.000000
  0
VERTEX
  8
PIN_TOP
 10
108.877000
 20
92.365100
 40
0.000000
 41
0.000000
 42
0.000000
  0
VERTEX
  8
PIN_TOP
 10
108.572200
 20
92.365100
 40
0.000000
 41
0.000000
 42
0.000000
  0
VERTEX
  8
PIN_TOP
 10
108.572200
 20
94.397100
 40
0.000000
 41
0.000000
 42
0.000000
  0
SEQEND
  0
POLYLINE
  8
PIN_TOP
 66
1
 70
1
 40
0.000000
 41
0.000000
 39
0.000000
  0
VERTEX
  8
PIN_TOP
 10
109.377100
 20
94.397100
 40
0.000000
 41
0.000000
 42
0.000000
  0
VERTEX
  8
PIN_TOP
 10
109.377100
 20
92.365100
 40
0.000000
 41
0.000000
 42
0.000000
  0
VERTEX
  8
PIN_TOP
 10
109.072300
 20
92.365100
 40
0.000000
 41
0.000000
 42
0.000000
  0
VERTEX
  8
PIN_TOP
 10
109.072300
 20
94.397100
 40
0.000000
 41
0.000000
 42
0.000000
  0
SEQEND
  0
POLYLINE
  8
PIN_TOP
 66
1
 70
1
 40
0.000000
 41
0.000000
 39
0.000000
  0
VERTEX
  8
PIN_TOP
 10
109.877300
 20
94.397100
 40
0.000000
 41
0.000000
 42
0.000000
  0
VERTEX
  8
PIN_TOP
 10
109.877300
 20
92.365100
 40
0.000000
 41
0.000000
 42
0.000000
  0
VERTEX
  8
PIN_TOP
 10
109.572500
 20
92.365100
 40
0.000000
 41
0.000000
 42
0.000000
  0
VERTEX
  8
PIN_TOP
 10
109.572500
 20
94.397100
 40
0.000000
 41
0.000000
 42
0.000000
  0
SEQEND
  0
POLYLINE
  8
PIN_TOP
 66
1
 70
1
 40
0.000000
 41
0.000000
 39
0.000000
  0
VERTEX
  8
PIN_TOP
 10
110.377400
 20
94.397100
 40
0.000000
 41
0.000000
 42
0.000000
  0
VERTEX
  8
PIN_TOP
 10
110.377400
 20
92.365100
 40
0.000000
 41
0.000000
 42
0.000000
  0
VERTEX
  8
PIN_TOP
 10
110.072600
 20
92.365100
 40
0.000000
 41
0.000000
 42
0.000000
  0
VERTEX
  8
PIN_TOP
 10
110.072600
 20
94.397100
 40
0.000000
 41
0.000000
 42
0.000000
  0
SEQEND
  0
POLYLINE
  8
PIN_TOP
 66
1
 70
1
 40
0.000000
 41
0.000000
 39
0.000000
  0
VERTEX
  8
PIN_TOP
 10
110.877500
 20
94.397100
 40
0.000000
 41
0.000000
 42
0.000000
  0
VERTEX
  8
PIN_TOP
 10
110.877500
 20
92.365100
 40
0.000000
 41
0.000000
 42
0.000000
  0
VERTEX
  8
PIN_TOP
 10
110.572700
 20
92.365100
 40
0.000000
 41
0.000000
 42
0.000000
  0
VERTEX
  8
PIN_TOP
 10
110.572700
 20
94.397100
 40
0.000000
 41
0.000000
 42
0.000000
  0
SEQEND
  0
POLYLINE
  8
PIN_TOP
 66
1
 70
1
 40
0.000000
 41
0.000000
 39
0.000000
  0
VERTEX
  8
PIN_TOP
 10
111.377600
 20
94.397100
 40
0.000000
 41
0.000000
 42
0.000000
  0
VERTEX
  8
PIN_TOP
 10
111.377600
 20
92.365100
 40
0.000000
 41
0.000000
 42
0.000000
  0
VERTEX
  8
PIN_TOP
 10
111.072800
 20
92.365100
 40
0.000000
 41
0.000000
 42
0.000000
  0
VERTEX
  8
PIN_TOP
 10
111.072800
 20
94.397100
 40
0.000000
 41
0.000000
 42
0.000000
  0
SEQEND
  0
POLYLINE
  8
PG_SILKSCREEN_TOP
 66
1
 70
0
 40
0.000000
 41
0.000000
 39
0.000000
  0
VERTEX
  8
PG_SILKSCREEN_TOP
 10
113.225000
 20
93.628700
 40
0.199900
 41
0.199900
 42
0.000000
  0
VERTEX
  8
PG_SILKSCREEN_TOP
 10
111.725100
 20
93.128800
 40
0.199900
 41
0.199900
 42
0.000000
  0
SEQEND
  0
POLYLINE
  8
PG_SILKSCREEN_TOP
 66
1
 70
0
 40
0.000000
 41
0.000000
 39
0.000000
  0
VERTEX
  8
PG_SILKSCREEN_TOP
 10
113.225000
 20
92.628700
 40
0.199900
 41
0.199900
 42
0.000000
  0
VERTEX
  8
PG_SILKSCREEN_TOP
 10
111.725100
 20
93.128800
 40
0.199900
 41
0.199900
 42
0.000000
  0
SEQEND
  0
POLYLINE
  8
PG_SILKSCREEN_TOP
 66
1
 70
0
 40
0.000000
 41
0.000000
 39
0.000000
  0
VERTEX
  8
PG_SILKSCREEN_TOP
 10
91.085000
 20
92.308800
 40
0.150000
 41
0.150000
 42
0.000000
  0
VERTEX
  8
PG_SILKSCREEN_TOP
 10
88.385000
 20
92.308800
 40
0.150000
 41
0.150000
 42
0.000000
  0
SEQEND
  0
POLYLINE
  8
PG_SILKSCREEN_TOP
 66
1
 70
0
 40
0.000000
 41
0.000000
 39
0.000000
  0
VERTEX
  8
PG_SILKSCREEN_TOP
 10
114.485000
 20
92.208800
 40
0.150000
 41
0.150000
 42
0.000000
  0
VERTEX
  8
PG_SILKSCREEN_TOP
 10
111.785000
 20
92.208800
 40
0.150000
 41
0.150000
 42
0.000000
  0
SEQEND
  0
POLYLINE
  8
PG_SILKSCREEN_TOP
 66
1
 70
0
 40
0.000000
 41
0.000000
 39
0.000000
  0
VERTEX
  8
PG_SILKSCREEN_TOP
 10
114.485000
 20
88.608800
 40
0.150000
 41
0.150000
 42
0.000000
  0
VERTEX
  8
PG_SILKSCREEN_TOP
 10
114.485000
 20
87.008800
 40
0.150000
 41
0.150000
 42
0.000000
  0
VERTEX
  8
PG_SILKSCREEN_TOP
 10
88.385000
 20
87.008800
 40
0.150000
 41
0.150000
 42
0.000000
  0
VERTEX
  8
PG_SILKSCREEN_TOP
 10
88.385000
 20
88.708800
 40
0.150000
 41
0.150000
 42
0.000000
  0
SEQEND
  0
POLYLINE
  8
PG_SILKSCREEN_TOP
 66
1
 70
1
 40
0.000000
 41
0.000000
 39
0.000000
  0
VERTEX
  8
PG_SILKSCREEN_TOP
 10
114.474900
 20
91.878900
 40
0.000000
 41
0.000000
 42
0.000000
  0
VERTEX
  8
PG_SILKSCREEN_TOP
 10
114.474900
 20
89.378800
 40
0.000000
 41
0.000000
 42
0.000000
  0
VERTEX
  8
PG_SILKSCREEN_TOP
 10
112.474900
 20
89.378800
 40
0.000000
 41
0.000000
 42
0.000000
  0
VERTEX
  8
PG_SILKSCREEN_TOP
 10
112.474900
 20
91.878900
 40
0.000000
 41
0.000000
 42
0.000000
  0
SEQEND
  0
POLYLINE
  8
PG_SILKSCREEN_TOP
 66
1
 70
1
 40
0.000000
 41
0.000000
 39
0.000000
  0
VERTEX
  8
PG_SILKSCREEN_TOP
 10
90.475000
 20
91.878900
 40
0.000000
 41
0.000000
 42
0.000000
  0
VERTEX
  8
PG_SILKSCREEN_TOP
 10
90.475000
 20
89.378800
 40
0.000000
 41
0.000000
 42
0.000000
  0
VERTEX
  8
PG_SILKSCREEN_TOP
 10
88.475000
 20
89.378800
 40
0.000000
 41
0.000000
 42
0.000000
  0
VERTEX
  8
PG_SILKSCREEN_TOP
 10
88.475000
 20
91.878900
 40
0.000000
 41
0.000000
 42
0.000000
  0
SEQEND
  0
TEXT
  8
PG_SILKSCREEN_TOP
 10
91.199400
 20
94.539300
 11
0.000000
 21
0.000000
 40
0.635000
 41
0.880000
 50
0.000000
  7
STANDARD
 71
0
 72
0
  1
40
 73
0
  0
POLYLINE
  8
PIN_TOP
 66
1
 70
1
 40
0.000000
 41
0.000000
 39
0.000000
  0
VERTEX
  8
PIN_TOP
 10
128.110200
 20
112.536300
 40
0.000000
 41
0.000000
 42
0.000000
  0
VERTEX
  8
PIN_TOP
 10
128.110200
 20
110.936100
 40
0.000000
 41
0.000000
 42
0.000000
  0
VERTEX
  8
PIN_TOP
 10
127.703800
 20
110.936100
 40
0.000000
 41
0.000000
 42
0.000000
  0
VERTEX
  8
PIN_TOP
 10
127.703800
 20
112.536300
 40
0.000000
 41
0.000000
 42
0.000000
  0
SEQEND
  0
POLYLINE
  8
PIN_TOP
 66
1
 70
1
 40
0.000000
 41
0.000000
 39
0.000000
  0
VERTEX
  8
PIN_TOP
 10
127.460200
 20
112.536300
 40
0.000000
 41
0.000000
 42
0.000000
  0
VERTEX
  8
PIN_TOP
 10
127.460200
 20
110.936100
 40
0.000000
 41
0.000000
 42
0.000000
  0
VERTEX
  8
PIN_TOP
 10
127.053800
 20
110.936100
 40
0.000000
 41
0.000000
 42
0.000000
  0
VERTEX
  8
PIN_TOP
 10
127.053800
 20
112.536300
 40
0.000000
 41
0.000000
 42
0.000000
  0
SEQEND
  0
POLYLINE
  8
PIN_TOP
 66
1
 70
1
 40
0.000000
 41
0.000000
 39
0.000000
  0
VERTEX
  8
PIN_TOP
 10
126.810200
 20
112.536300
 40
0.000000
 41
0.000000
 42
0.000000
  0
VERTEX
  8
PIN_TOP
 10
126.810200
 20
110.936100
 40
0.000000
 41
0.000000
 42
0.000000
  0
VERTEX
  8
PIN_TOP
 10
126.403800
 20
110.936100
 40
0.000000
 41
0.000000
 42
0.000000
  0
VERTEX
  8
PIN_TOP
 10
126.403800
 20
112.536300
 40
0.000000
 41
0.000000
 42
0.000000
  0
SEQEND
  0
POLYLINE
  8
PIN_TOP
 66
1
 70
1
 40
0.000000
 41
0.000000
 39
0.000000
  0
VERTEX
  8
PIN_TOP
 10
126.160200
 20
112.536300
 40
0.000000
 41
0.000000
 42
0.000000
  0
VERTEX
  8
PIN_TOP
 10
126.160200
 20
110.936100
 40
0.000000
 41
0.000000
 42
0.000000
  0
VERTEX
  8
PIN_TOP
 10
125.753800
 20
110.936100
 40
0.000000
 41
0.000000
 42
0.000000
  0
VERTEX
  8
PIN_TOP
 10
125.753800
 20
112.536300
 40
0.000000
 41
0.000000
 42
0.000000
  0
SEQEND
  0
POLYLINE
  8
PIN_TOP
 66
1
 70
1
 40
0.000000
 41
0.000000
 39
0.000000
  0
VERTEX
  8
PIN_TOP
 10
125.510200
 20
112.536300
 40
0.000000
 41
0.000000
 42
0.000000
  0
VERTEX
  8
PIN_TOP
 10
125.510200
 20
110.936100
 40
0.000000
 41
0.000000
 42
0.000000
  0
VERTEX
  8
PIN_TOP
 10
125.103800
 20
110.936100
 40
0.000000
 41
0.000000
 42
0.000000
  0
VERTEX
  8
PIN_TOP
 10
125.103800
 20
112.536300
 40
0.000000
 41
0.000000
 42
0.000000
  0
SEQEND
  0
POLYLINE
  8
PIN_TOP
 66
1
 70
1
 40
0.000000
 41
0.000000
 39
0.000000
  0
VERTEX
  8
PIN_TOP
 10
129.635400
 20
114.330300
 40
0.000000
 41
0.000000
 42
0.000000
  0
VERTEX
  8
PIN_TOP
 10
129.635400
 20
115.092300
 40
0.000000
 41
0.000000
 42
-1.000000
  0
VERTEX
  8
PIN_TOP
 10
130.778400
 20
115.092300
 40
0.000000
 41
0.000000
 42
0.000000
  0
VERTEX
  8
PIN_TOP
 10
130.778400
 20
114.330300
 40
0.000000
 41
0.000000
 42
-1.000000
  0
SEQEND
  0
POLYLINE
  8
PIN_IN1-LAYER3
 66
1
 70
1
 40
0.000000
 41
0.000000
 39
0.000000
  0
VERTEX
  8
PIN_IN1-LAYER3
 10
129.635400
 20
114.330300
 40
0.000000
 41
0.000000
 42
0.000000
  0
VERTEX
  8
PIN_IN1-LAYER3
 10
129.635400
 20
115.092300
 40
0.000000
 41
0.000000
 42
-1.000000
  0
VERTEX
  8
PIN_IN1-LAYER3
 10
130.778400
 20
115.092300
 40
0.000000
 41
0.000000
 42
0.000000
  0
VERTEX
  8
PIN_IN1-LAYER3
 10
130.778400
 20
114.330300
 40
0.000000
 41
0.000000
 42
-1.000000
  0
SEQEND
  0
POLYLINE
  8
PIN_IN2-LAYER4
 66
1
 70
1
 40
0.000000
 41
0.000000
 39
0.000000
  0
VERTEX
  8
PIN_IN2-LAYER4
 10
129.635400
 20
114.330300
 40
0.000000
 41
0.000000
 42
0.000000
  0
VERTEX
  8
PIN_IN2-LAYER4
 10
129.635400
 20
115.092300
 40
0.000000
 41
0.000000
 42
-1.000000
  0
VERTEX
  8
PIN_IN2-LAYER4
 10
130.778400
 20
115.092300
 40
0.000000
 41
0.000000
 42
0.000000
  0
VERTEX
  8
PIN_IN2-LAYER4
 10
130.778400
 20
114.330300
 40
0.000000
 41
0.000000
 42
-1.000000
  0
SEQEND
  0
INSERT
  8
MANUFACTURING_NCDRILL_FIGURE
  2
FIGURE_OBLONG
 10
130.206900
 20
114.711300
 41
0.838200
 42
1.524000
 50
180.000000
  0
POLYLINE
  8
PIN_TOP
 66
1
 70
1
 40
0.000000
 41
0.000000
 39
0.000000
  0
VERTEX
  8
PIN_TOP
 10
122.435400
 20
114.330300
 40
0.000000
 41
0.000000
 42
0.000000
  0
VERTEX
  8
PIN_TOP
 10
122.435400
 20
115.092300
 40
0.000000
 41
0.000000
 42
-1.000000
  0
VERTEX
  8
PIN_TOP
 10
123.578400
 20
115.092300
 40
0.000000
 41
0.000000
 42
0.000000
  0
VERTEX
  8
PIN_TOP
 10
123.578400
 20
114.330300
 40
0.000000
 41
0.000000
 42
-1.000000
  0
SEQEND
  0
POLYLINE
  8
PIN_IN1-LAYER3
 66
1
 70
1
 40
0.000000
 41
0.000000
 39
0.000000
  0
VERTEX
  8
PIN_IN1-LAYER3
 10
122.435400
 20
114.330300
 40
0.000000
 41
0.000000
 42
0.000000
  0
VERTEX
  8
PIN_IN1-LAYER3
 10
122.435400
 20
115.092300
 40
0.000000
 41
0.000000
 42
-1.000000
  0
VERTEX
  8
PIN_IN1-LAYER3
 10
123.578400
 20
115.092300
 40
0.000000
 41
0.000000
 42
0.000000
  0
VERTEX
  8
PIN_IN1-LAYER3
 10
123.578400
 20
114.330300
 40
0.000000
 41
0.000000
 42
-1.000000
  0
SEQEND
  0
POLYLINE
  8
PIN_IN2-LAYER4
 66
1
 70
1
 40
0.000000
 41
0.000000
 39
0.000000
  0
VERTEX
  8
PIN_IN2-LAYER4
 10
122.435400
 20
114.330300
 40
0.000000
 41
0.000000
 42
0.000000
  0
VERTEX
  8
PIN_IN2-LAYER4
 10
122.435400
 20
115.092300
 40
0.000000
 41
0.000000
 42
-1.000000
  0
VERTEX
  8
PIN_IN2-LAYER4
 10
123.578400
 20
115.092300
 40
0.000000
 41
0.000000
 42
0.000000
  0
VERTEX
  8
PIN_IN2-LAYER4
 10
123.578400
 20
114.330300
 40
0.000000
 41
0.000000
 42
-1.000000
  0
SEQEND
  0
INSERT
  8
MANUFACTURING_NCDRILL_FIGURE
  2
FIGURE_OBLONG
 10
123.006900
 20
114.711300
 41
0.838200
 42
1.524000
 50
180.000000
  0
POLYLINE
  8
PIN_TOP
 66
1
 70
1
 40
0.000000
 41
0.000000
 39
0.000000
  0
VERTEX
  8
PIN_TOP
 10
128.797500
 20
115.701900
 40
0.000000
 41
0.000000
 42
0.000000
  0
VERTEX
  8
PIN_TOP
 10
128.797500
 20
113.720700
 40
0.000000
 41
0.000000
 42
0.000000
  0
VERTEX
  8
PIN_TOP
 10
126.816300
 20
113.720700
 40
0.000000
 41
0.000000
 42
0.000000
  0
VERTEX
  8
PIN_TOP
 10
126.816300
 20
115.701900
 40
0.000000
 41
0.000000
 42
0.000000
  0
SEQEND
  0
POLYLINE
  8
PIN_TOP
 66
1
 70
1
 40
0.000000
 41
0.000000
 39
0.000000
  0
VERTEX
  8
PIN_TOP
 10
126.397500
 20
115.701900
 40
0.000000
 41
0.000000
 42
0.000000
  0
VERTEX
  8
PIN_TOP
 10
126.397500
 20
113.720700
 40
0.000000
 41
0.000000
 42
0.000000
  0
VERTEX
  8
PIN_TOP
 10
124.416300
 20
113.720700
 40
0.000000
 41
0.000000
 42
0.000000
  0
VERTEX
  8
PIN_TOP
 10
124.416300
 20
115.701900
 40
0.000000
 41
0.000000
 42
0.000000
  0
SEQEND
  0
POLYLINE
  8
PIN_TOP
 66
1
 70
1
 40
0.000000
 41
0.000000
 39
0.000000
  0
VERTEX
  8
PIN_TOP
 10
128.507000
 20
111.685050
 40
0.000000
 41
0.000000
 42
0.000000
  0
VERTEX
  8
PIN_TOP
 10
128.507000
 20
111.884950
 40
0.000000
 41
0.000000
 42
-1.000000
  0
VERTEX
  8
PIN_TOP
 10
129.557000
 20
111.884950
 40
0.000000
 41
0.000000
 42
0.000000
  0
VERTEX
  8
PIN_TOP
 10
129.557000
 20
111.685050
 40
0.000000
 41
0.000000
 42
-1.000000
  0
SEQEND
  0
POLYLINE
  8
PIN_IN1-LAYER3
 66
1
 70
1
 40
0.000000
 41
0.000000
 39
0.000000
  0
VERTEX
  8
PIN_IN1-LAYER3
 10
128.507000
 20
111.685050
 40
0.000000
 41
0.000000
 42
0.000000
  0
VERTEX
  8
PIN_IN1-LAYER3
 10
128.507000
 20
111.884950
 40
0.000000
 41
0.000000
 42
-1.000000
  0
VERTEX
  8
PIN_IN1-LAYER3
 10
129.557000
 20
111.884950
 40
0.000000
 41
0.000000
 42
0.000000
  0
VERTEX
  8
PIN_IN1-LAYER3
 10
129.557000
 20
111.685050
 40
0.000000
 41
0.000000
 42
-1.000000
  0
SEQEND
  0
POLYLINE
  8
PIN_IN2-LAYER4
 66
1
 70
1
 40
0.000000
 41
0.000000
 39
0.000000
  0
VERTEX
  8
PIN_IN2-LAYER4
 10
128.507000
 20
111.685050
 40
0.000000
 41
0.000000
 42
0.000000
  0
VERTEX
  8
PIN_IN2-LAYER4
 10
128.507000
 20
111.884950
 40
0.000000
 41
0.000000
 42
-1.000000
  0
VERTEX
  8
PIN_IN2-LAYER4
 10
129.557000
 20
111.884950
 40
0.000000
 41
0.000000
 42
0.000000
  0
VERTEX
  8
PIN_IN2-LAYER4
 10
129.557000
 20
111.685050
 40
0.000000
 41
0.000000
 42
-1.000000
  0
SEQEND
  0
INSERT
  8
MANUFACTURING_NCDRILL_FIGURE
  2
FIGURE_OBLONG
 10
129.032000
 20
111.785000
 41
0.650000
 42
0.849900
 50
180.000000
  0
POLYLINE
  8
PIN_TOP
 66
1
 70
1
 40
0.000000
 41
0.000000
 39
0.000000
  0
VERTEX
  8
PIN_TOP
 10
123.657000
 20
111.685050
 40
0.000000
 41
0.000000
 42
0.000000
  0
VERTEX
  8
PIN_TOP
 10
123.657000
 20
111.884950
 40
0.000000
 41
0.000000
 42
-1.000000
  0
VERTEX
  8
PIN_TOP
 10
124.707000
 20
111.884950
 40
0.000000
 41
0.000000
 42
0.000000
  0
VERTEX
  8
PIN_TOP
 10
124.707000
 20
111.685050
 40
0.000000
 41
0.000000
 42
-1.000000
  0
SEQEND
  0
POLYLINE
  8
PIN_IN1-LAYER3
 66
1
 70
1
 40
0.000000
 41
0.000000
 39
0.000000
  0
VERTEX
  8
PIN_IN1-LAYER3
 10
123.657000
 20
111.685050
 40
0.000000
 41
0.000000
 42
0.000000
  0
VERTEX
  8
PIN_IN1-LAYER3
 10
123.657000
 20
111.884950
 40
0.000000
 41
0.000000
 42
-1.000000
  0
VERTEX
  8
PIN_IN1-LAYER3
 10
124.707000
 20
111.884950
 40
0.000000
 41
0.000000
 42
0.000000
  0
VERTEX
  8
PIN_IN1-LAYER3
 10
124.707000
 20
111.685050
 40
0.000000
 41
0.000000
 42
-1.000000
  0
SEQEND
  0
POLYLINE
  8
PIN_IN2-LAYER4
 66
1
 70
1
 40
0.000000
 41
0.000000
 39
0.000000
  0
VERTEX
  8
PIN_IN2-LAYER4
 10
123.657000
 20
111.685050
 40
0.000000
 41
0.000000
 42
0.000000
  0
VERTEX
  8
PIN_IN2-LAYER4
 10
123.657000
 20
111.884950
 40
0.000000
 41
0.000000
 42
-1.000000
  0
VERTEX
  8
PIN_IN2-LAYER4
 10
124.707000
 20
111.884950
 40
0.000000
 41
0.000000
 42
0.000000
  0
VERTEX
  8
PIN_IN2-LAYER4
 10
124.707000
 20
111.685050
 40
0.000000
 41
0.000000
 42
-1.000000
  0
SEQEND
  0
INSERT
  8
MANUFACTURING_NCDRILL_FIGURE
  2
FIGURE_OBLONG
 10
124.182000
 20
111.785000
 41
0.650000
 42
0.849900
 50
180.000000
  0
POLYLINE
  8
PG_SILKSCREEN_TOP
 66
1
 70
0
 40
0.000000
 41
0.000000
 39
0.000000
  0
VERTEX
  8
PG_SILKSCREEN_TOP
 10
129.782000
 20
112.150000
 40
0.200000
 41
0.200000
 42
0.000000
  0
VERTEX
  8
PG_SILKSCREEN_TOP
 10
130.417000
 20
112.150000
 40
0.200000
 41
0.200000
 42
0.000000
  0
VERTEX
  8
PG_SILKSCREEN_TOP
 10
130.417000
 20
113.547000
 40
0.200000
 41
0.200000
 42
0.000000
  0
SEQEND
  0
POLYLINE
  8
PG_SILKSCREEN_TOP
 66
1
 70
0
 40
0.000000
 41
0.000000
 39
0.000000
  0
VERTEX
  8
PG_SILKSCREEN_TOP
 10
130.417000
 20
115.453000
 40
0.200000
 41
0.200000
 42
0.000000
  0
VERTEX
  8
PG_SILKSCREEN_TOP
 10
130.417000
 20
116.850000
 40
0.200000
 41
0.200000
 42
0.000000
  0
VERTEX
  8
PG_SILKSCREEN_TOP
 10
130.925000
 20
117.358000
 40
0.200000
 41
0.200000
 42
0.000000
  0
VERTEX
  8
PG_SILKSCREEN_TOP
 10
130.925000
 20
117.612000
 40
0.200000
 41
0.200000
 42
0.000000
  0
VERTEX
  8
PG_SILKSCREEN_TOP
 10
130.798000
 20
117.612000
 40
0.200000
 41
0.200000
 42
0.000000
  0
VERTEX
  8
PG_SILKSCREEN_TOP
 10
130.036000
 20
116.850000
 40
0.200000
 41
0.200000
 42
0.000000
  0
VERTEX
  8
PG_SILKSCREEN_TOP
 10
123.178000
 20
116.850000
 40
0.200000
 41
0.200000
 42
0.000000
  0
VERTEX
  8
PG_SILKSCREEN_TOP
 10
122.416000
 20
117.612000
 40
0.200000
 41
0.200000
 42
0.000000
  0
VERTEX
  8
PG_SILKSCREEN_TOP
 10
122.289000
 20
117.612000
 40
0.200000
 41
0.200000
 42
0.000000
  0
VERTEX
  8
PG_SILKSCREEN_TOP
 10
122.289000
 20
117.358000
 40
0.200000
 41
0.200000
 42
0.000000
  0
VERTEX
  8
PG_SILKSCREEN_TOP
 10
122.797000
 20
116.850000
 40
0.200000
 41
0.200000
 42
0.000000
  0
VERTEX
  8
PG_SILKSCREEN_TOP
 10
122.797000
 20
115.453000
 40
0.200000
 41
0.200000
 42
0.000000
  0
SEQEND
  0
POLYLINE
  8
PG_SILKSCREEN_TOP
 66
1
 70
0
 40
0.000000
 41
0.000000
 39
0.000000
  0
VERTEX
  8
PG_SILKSCREEN_TOP
 10
122.797000
 20
113.547000
 40
0.200000
 41
0.200000
 42
0.000000
  0
VERTEX
  8
PG_SILKSCREEN_TOP
 10
122.797000
 20
112.150000
 40
0.200000
 41
0.200000
 42
0.000000
  0
VERTEX
  8
PG_SILKSCREEN_TOP
 10
123.432000
 20
112.150000
 40
0.200000
 41
0.200000
 42
0.000000
  0
SEQEND
  0
CIRCLE
  8
PIN_TOP
 10
127.178500
 20
108.596500
 40
1.905000
  0
CIRCLE
  8
PIN_IN1-LAYER3
 10
127.178500
 20
108.596500
 40
1.905000
  0
CIRCLE
  8
PIN_IN2-LAYER4
 10
127.178500
 20
108.596500
 40
1.905000
  0
INSERT
  8
MANUFACTURING_NCDRILL_FIGURE
  2
FIGURE_CIRCLE
 10
127.178500
 20
108.596500
 41
2.000000
 42
1.500000
 50
0.000000
  0
CIRCLE
  8
PIN_TOP
 10
127.178500
 20
95.439300
 40
1.905000
  0
CIRCLE
  8
PIN_IN1-LAYER3
 10
127.178500
 20
95.439300
 40
1.905000
  0
CIRCLE
  8
PIN_IN2-LAYER4
 10
127.178500
 20
95.439300
 40
1.905000
  0
INSERT
  8
MANUFACTURING_NCDRILL_FIGURE
  2
FIGURE_CIRCLE
 10
127.178500
 20
95.439300
 41
2.000000
 42
1.500000
 50
0.000000
  0
CIRCLE
  8
PIN_TOP
 10
124.460700
 20
105.523100
 40
0.825500
  0
CIRCLE
  8
PIN_IN1-LAYER3
 10
124.460700
 20
105.523100
 40
0.825500
  0
CIRCLE
  8
PIN_IN2-LAYER4
 10
124.460700
 20
105.523100
 40
0.825500
  0
INSERT
  8
MANUFACTURING_NCDRILL_FIGURE
  2
FIGURE_CIRCLE
 10
124.460700
 20
105.523100
 41
1.000000
 42
1.000000
 50
0.000000
  0
CIRCLE
  8
PIN_TOP
 10
124.460700
 20
103.021200
 40
0.762000
  0
CIRCLE
  8
PIN_IN1-LAYER3
 10
124.460700
 20
103.021200
 40
0.762000
  0
CIRCLE
  8
PIN_IN2-LAYER4
 10
124.460700
 20
103.021200
 40
0.762000
  0
INSERT
  8
MANUFACTURING_NCDRILL_FIGURE
  2
FIGURE_CIRCLE
 10
124.460700
 20
103.021200
 41
1.000000
 42
1.000000
 50
0.000000
  0
CIRCLE
  8
PIN_TOP
 10
124.460700
 20
101.027300
 40
0.762000
  0
CIRCLE
  8
PIN_IN1-LAYER3
 10
124.460700
 20
101.027300
 40
0.762000
  0
CIRCLE
  8
PIN_IN2-LAYER4
 10
124.460700
 20
101.027300
 40
0.762000
  0
INSERT
  8
MANUFACTURING_NCDRILL_FIGURE
  2
FIGURE_CIRCLE
 10
124.460700
 20
101.027300
 41
1.000000
 42
1.000000
 50
0.000000
  0
CIRCLE
  8
PIN_TOP
 10
124.460700
 20
98.522900
 40
0.825500
  0
CIRCLE
  8
PIN_IN1-LAYER3
 10
124.460700
 20
98.522900
 40
0.825500
  0
CIRCLE
  8
PIN_IN2-LAYER4
 10
124.460700
 20
98.522900
 40
0.825500
  0
INSERT
  8
MANUFACTURING_NCDRILL_FIGURE
  2
FIGURE_CIRCLE
 10
124.460700
 20
98.522900
 41
1.000000
 42
1.000000
 50
0.000000
  0
POLYLINE
  8
PG_SILKSCREEN_TOP
 66
1
 70
0
 40
0.000000
 41
0.000000
 39
0.000000
  0
VERTEX
  8
PG_SILKSCREEN_TOP
 10
137.414700
 20
96.160700
 40
0.152400
 41
0.152400
 42
0.000000
  0
VERTEX
  8
PG_SILKSCREEN_TOP
 10
137.414700
 20
95.398700
 40
0.152400
 41
0.152400
 42
0.000000
  0
VERTEX
  8
PG_SILKSCREEN_TOP
 10
137.109900
 20
95.398700
 40
0.152400
 41
0.152400
 42
0.000000
  0
SEQEND
  0
POLYLINE
  8
PG_SILKSCREEN_TOP
 66
1
 70
0
 40
0.000000
 41
0.000000
 39
0.000000
  0
VERTEX
  8
PG_SILKSCREEN_TOP
 10
137.414700
 20
97.252900
 40
0.152400
 41
0.152400
 42
0.000000
  0
VERTEX
  8
PG_SILKSCREEN_TOP
 10
137.414700
 20
96.516300
 40
0.152400
 41
0.152400
 42
0.000000
  0
SEQEND
  0
POLYLINE
  8
PG_SILKSCREEN_TOP
 66
1
 70
0
 40
0.000000
 41
0.000000
 39
0.000000
  0
VERTEX
  8
PG_SILKSCREEN_TOP
 10
137.414700
 20
98.573700
 40
0.152400
 41
0.152400
 42
0.000000
  0
VERTEX
  8
PG_SILKSCREEN_TOP
 10
137.414700
 20
97.837100
 40
0.152400
 41
0.152400
 42
0.000000
  0
SEQEND
  0
POLYLINE
  8
PG_SILKSCREEN_TOP
 66
1
 70
0
 40
0.000000
 41
0.000000
 39
0.000000
  0
VERTEX
  8
PG_SILKSCREEN_TOP
 10
137.414700
 20
99.792900
 40
0.152400
 41
0.152400
 42
0.000000
  0
VERTEX
  8
PG_SILKSCREEN_TOP
 10
137.414700
 20
99.056300
 40
0.152400
 41
0.152400
 42
0.000000
  0
SEQEND
  0
POLYLINE
  8
PG_SILKSCREEN_TOP
 66
1
 70
0
 40
0.000000
 41
0.000000
 39
0.000000
  0
VERTEX
  8
PG_SILKSCREEN_TOP
 10
137.414700
 20
101.062900
 40
0.152400
 41
0.152400
 42
0.000000
  0
VERTEX
  8
PG_SILKSCREEN_TOP
 10
137.414700
 20
100.326300
 40
0.152400
 41
0.152400
 42
0.000000
  0
SEQEND
  0
POLYLINE
  8
PG_SILKSCREEN_TOP
 66
1
 70
0
 40
0.000000
 41
0.000000
 39
0.000000
  0
VERTEX
  8
PG_SILKSCREEN_TOP
 10
137.414700
 20
102.231300
 40
0.152400
 41
0.152400
 42
0.000000
  0
VERTEX
  8
PG_SILKSCREEN_TOP
 10
137.414700
 20
101.494700
 40
0.152400
 41
0.152400
 42
0.000000
  0
SEQEND
  0
POLYLINE
  8
PG_SILKSCREEN_TOP
 66
1
 70
0
 40
0.000000
 41
0.000000
 39
0.000000
  0
VERTEX
  8
PG_SILKSCREEN_TOP
 10
137.414700
 20
103.399700
 40
0.152400
 41
0.152400
 42
0.000000
  0
VERTEX
  8
PG_SILKSCREEN_TOP
 10
137.414700
 20
102.663100
 40
0.152400
 41
0.152400
 42
0.000000
  0
SEQEND
  0
POLYLINE
  8
PG_SILKSCREEN_TOP
 66
1
 70
0
 40
0.000000
 41
0.000000
 39
0.000000
  0
VERTEX
  8
PG_SILKSCREEN_TOP
 10
137.414700
 20
104.593500
 40
0.152400
 41
0.152400
 42
0.000000
  0
VERTEX
  8
PG_SILKSCREEN_TOP
 10
137.414700
 20
103.856900
 40
0.152400
 41
0.152400
 42
0.000000
  0
SEQEND
  0
POLYLINE
  8
PG_SILKSCREEN_TOP
 66
1
 70
0
 40
0.000000
 41
0.000000
 39
0.000000
  0
VERTEX
  8
PG_SILKSCREEN_TOP
 10
137.414700
 20
105.812700
 40
0.152400
 41
0.152400
 42
0.000000
  0
VERTEX
  8
PG_SILKSCREEN_TOP
 10
137.414700
 20
105.076100
 40
0.152400
 41
0.152400
 42
0.000000
  0
SEQEND
  0
POLYLINE
  8
PG_SILKSCREEN_TOP
 66
1
 70
0
 40
0.000000
 41
0.000000
 39
0.000000
  0
VERTEX
  8
PG_SILKSCREEN_TOP
 10
137.414700
 20
107.057300
 40
0.152400
 41
0.152400
 42
0.000000
  0
VERTEX
  8
PG_SILKSCREEN_TOP
 10
137.414700
 20
106.320700
 40
0.152400
 41
0.152400
 42
0.000000
  0
SEQEND
  0
POLYLINE
  8
PG_SILKSCREEN_TOP
 66
1
 70
0
 40
0.000000
 41
0.000000
 39
0.000000
  0
VERTEX
  8
PG_SILKSCREEN_TOP
 10
137.109900
 20
108.581300
 40
0.152400
 41
0.152400
 42
0.000000
  0
VERTEX
  8
PG_SILKSCREEN_TOP
 10
137.414700
 20
108.581300
 40
0.152400
 41
0.152400
 42
0.000000
  0
VERTEX
  8
PG_SILKSCREEN_TOP
 10
137.414700
 20
107.666900
 40
0.152400
 41
0.152400
 42
0.000000
  0
SEQEND
  0
POLYLINE
  8
PG_SILKSCREEN_TOP
 66
1
 70
0
 40
0.000000
 41
0.000000
 39
0.000000
  0
VERTEX
  8
PG_SILKSCREEN_TOP
 10
127.178500
 20
108.596500
 40
0.203200
 41
0.203200
 42
0.000000
  0
VERTEX
  8
PG_SILKSCREEN_TOP
 10
122.390600
 20
108.596500
 40
0.203200
 41
0.203200
 42
0.000000
  0
VERTEX
  8
PG_SILKSCREEN_TOP
 10
122.390600
 20
95.388500
 40
0.203200
 41
0.203200
 42
0.000000
  0
VERTEX
  8
PG_SILKSCREEN_TOP
 10
137.122600
 20
95.388500
 40
0.203200
 41
0.203200
 42
0.000000
  0
VERTEX
  8
PG_SILKSCREEN_TOP
 10
137.122600
 20
108.596500
 40
0.203200
 41
0.203200
 42
0.000000
  0
VERTEX
  8
PG_SILKSCREEN_TOP
 10
127.168300
 20
108.596500
 40
0.203200
 41
0.203200
 42
0.000000
  0
VERTEX
  8
PG_SILKSCREEN_TOP
 10
127.127700
 20
108.555900
 40
0.203200
 41
0.203200
 42
0.000000
  0
VERTEX
  8
PG_SILKSCREEN_TOP
 10
127.127700
 20
95.474900
 40
0.203200
 41
0.203200
 42
0.000000
  0
SEQEND
  0
TEXT
  8
PG_SILKSCREEN_TOP
 10
123.233000
 20
97.456100
 11
0.000000
 21
0.000000
 40
0.635000
 41
0.880000
 50
90.000000
  7
STANDARD
 71
0
 72
0
  1
VUSB
 73
0
  0
TEXT
  8
PG_SILKSCREEN_TOP
 10
123.233000
 20
100.478700
 11
0.000000
 21
0.000000
 40
0.635000
 41
0.880000
 50
90.000000
  7
STANDARD
 71
0
 72
0
  1
D-
 73
0
  0
TEXT
  8
PG_SILKSCREEN_TOP
 10
123.233000
 20
102.383700
 11
0.000000
 21
0.000000
 40
0.635000
 41
0.880000
 50
90.000000
  7
STANDARD
 71
0
 72
0
  1
D+
 73
0
  0
TEXT
  8
PG_SILKSCREEN_TOP
 10
123.233000
 20
104.745900
 11
0.000000
 21
0.000000
 40
0.635000
 41
0.880000
 50
90.000000
  7
STANDARD
 71
0
 72
0
  1
GND
 73
0
  0
POLYLINE
  8
PIN_TOP
 66
1
 70
1
 40
0.000000
 41
0.000000
 39
0.000000
  0
VERTEX
  8
PIN_TOP
 10
70.893300
 20
94.279700
 40
0.000000
 41
0.000000
 42
0.000000
  0
VERTEX
  8
PIN_TOP
 10
70.410700
 20
94.279700
 40
0.000000
 41
0.000000
 42
0.000000
  0
VERTEX
  8
PIN_TOP
 10
70.410700
 20
95.397300
 40
0.000000
 41
0.000000
 42
0.000000
  0
VERTEX
  8
PIN_TOP
 10
70.893300
 20
95.397300
 40
0.000000
 41
0.000000
 42
0.000000
  0
SEQEND
  0
POLYLINE
  8
PIN_TOP
 66
1
 70
1
 40
0.000000
 41
0.000000
 39
0.000000
  0
VERTEX
  8
PIN_TOP
 10
71.793300
 20
94.279700
 40
0.000000
 41
0.000000
 42
0.000000
  0
VERTEX
  8
PIN_TOP
 10
71.310700
 20
94.279700
 40
0.000000
 41
0.000000
 42
0.000000
  0
VERTEX
  8
PIN_TOP
 10
71.310700
 20
95.397300
 40
0.000000
 41
0.000000
 42
0.000000
  0
VERTEX
  8
PIN_TOP
 10
71.793300
 20
95.397300
 40
0.000000
 41
0.000000
 42
0.000000
  0
SEQEND
  0
POLYLINE
  8
PIN_TOP
 66
1
 70
1
 40
0.000000
 41
0.000000
 39
0.000000
  0
VERTEX
  8
PIN_TOP
 10
72.693300
 20
94.279700
 40
0.000000
 41
0.000000
 42
0.000000
  0
VERTEX
  8
PIN_TOP
 10
72.210700
 20
94.279700
 40
0.000000
 41
0.000000
 42
0.000000
  0
VERTEX
  8
PIN_TOP
 10
72.210700
 20
95.397300
 40
0.000000
 41
0.000000
 42
0.000000
  0
VERTEX
  8
PIN_TOP
 10
72.693300
 20
95.397300
 40
0.000000
 41
0.000000
 42
0.000000
  0
SEQEND
  0
POLYLINE
  8
PIN_TOP
 66
1
 70
1
 40
0.000000
 41
0.000000
 39
0.000000
  0
VERTEX
  8
PIN_TOP
 10
73.593300
 20
94.279700
 40
0.000000
 41
0.000000
 42
0.000000
  0
VERTEX
  8
PIN_TOP
 10
73.110700
 20
94.279700
 40
0.000000
 41
0.000000
 42
0.000000
  0
VERTEX
  8
PIN_TOP
 10
73.110700
 20
95.397300
 40
0.000000
 41
0.000000
 42
0.000000
  0
VERTEX
  8
PIN_TOP
 10
73.593300
 20
95.397300
 40
0.000000
 41
0.000000
 42
0.000000
  0
SEQEND
  0
POLYLINE
  8
PIN_TOP
 66
1
 70
1
 40
0.000000
 41
0.000000
 39
0.000000
  0
VERTEX
  8
PIN_TOP
 10
74.493300
 20
94.279700
 40
0.000000
 41
0.000000
 42
0.000000
  0
VERTEX
  8
PIN_TOP
 10
74.010700
 20
94.279700
 40
0.000000
 41
0.000000
 42
0.000000
  0
VERTEX
  8
PIN_TOP
 10
74.010700
 20
95.397300
 40
0.000000
 41
0.000000
 42
0.000000
  0
VERTEX
  8
PIN_TOP
 10
74.493300
 20
95.397300
 40
0.000000
 41
0.000000
 42
0.000000
  0
SEQEND
  0
POLYLINE
  8
PIN_TOP
 66
1
 70
1
 40
0.000000
 41
0.000000
 39
0.000000
  0
VERTEX
  8
PIN_TOP
 10
75.393300
 20
94.279700
 40
0.000000
 41
0.000000
 42
0.000000
  0
VERTEX
  8
PIN_TOP
 10
74.910700
 20
94.279700
 40
0.000000
 41
0.000000
 42
0.000000
  0
VERTEX
  8
PIN_TOP
 10
74.910700
 20
95.397300
 40
0.000000
 41
0.000000
 42
0.000000
  0
VERTEX
  8
PIN_TOP
 10
75.393300
 20
95.397300
 40
0.000000
 41
0.000000
 42
0.000000
  0
SEQEND
  0
POLYLINE
  8
PIN_TOP
 66
1
 70
1
 40
0.000000
 41
0.000000
 39
0.000000
  0
VERTEX
  8
PIN_TOP
 10
69.993300
 20
94.279700
 40
0.000000
 41
0.000000
 42
0.000000
  0
VERTEX
  8
PIN_TOP
 10
69.510700
 20
94.279700
 40
0.000000
 41
0.000000
 42
0.000000
  0
VERTEX
  8
PIN_TOP
 10
69.510700
 20
95.397300
 40
0.000000
 41
0.000000
 42
0.000000
  0
VERTEX
  8
PIN_TOP
 10
69.993300
 20
95.397300
 40
0.000000
 41
0.000000
 42
0.000000
  0
SEQEND
  0
POLYLINE
  8
PIN_TOP
 66
1
 70
1
 40
0.000000
 41
0.000000
 39
0.000000
  0
VERTEX
  8
PIN_TOP
 10
69.093300
 20
94.279700
 40
0.000000
 41
0.000000
 42
0.000000
  0
VERTEX
  8
PIN_TOP
 10
68.610700
 20
94.279700
 40
0.000000
 41
0.000000
 42
0.000000
  0
VERTEX
  8
PIN_TOP
 10
68.610700
 20
95.397300
 40
0.000000
 41
0.000000
 42
0.000000
  0
VERTEX
  8
PIN_TOP
 10
69.093300
 20
95.397300
 40
0.000000
 41
0.000000
 42
0.000000
  0
SEQEND
  0
POLYLINE
  8
PIN_TOP
 66
1
 70
1
 40
0.000000
 41
0.000000
 39
0.000000
  0
VERTEX
  8
PIN_TOP
 10
68.193300
 20
94.279700
 40
0.000000
 41
0.000000
 42
0.000000
  0
VERTEX
  8
PIN_TOP
 10
67.710700
 20
94.279700
 40
0.000000
 41
0.000000
 42
0.000000
  0
VERTEX
  8
PIN_TOP
 10
67.710700
 20
95.397300
 40
0.000000
 41
0.000000
 42
0.000000
  0
VERTEX
  8
PIN_TOP
 10
68.193300
 20
95.397300
 40
0.000000
 41
0.000000
 42
0.000000
  0
SEQEND
  0
POLYLINE
  8
PIN_TOP
 66
1
 70
1
 40
0.000000
 41
0.000000
 39
0.000000
  0
VERTEX
  8
PIN_TOP
 10
67.293300
 20
94.279700
 40
0.000000
 41
0.000000
 42
0.000000
  0
VERTEX
  8
PIN_TOP
 10
66.810700
 20
94.279700
 40
0.000000
 41
0.000000
 42
0.000000
  0
VERTEX
  8
PIN_TOP
 10
66.810700
 20
95.397300
 40
0.000000
 41
0.000000
 42
0.000000
  0
VERTEX
  8
PIN_TOP
 10
67.293300
 20
95.397300
 40
0.000000
 41
0.000000
 42
0.000000
  0
SEQEND
  0
POLYLINE
  8
PIN_TOP
 66
1
 70
1
 40
0.000000
 41
0.000000
 39
0.000000
  0
VERTEX
  8
PIN_TOP
 10
66.393300
 20
94.279700
 40
0.000000
 41
0.000000
 42
0.000000
  0
VERTEX
  8
PIN_TOP
 10
65.910700
 20
94.279700
 40
0.000000
 41
0.000000
 42
0.000000
  0
VERTEX
  8
PIN_TOP
 10
65.910700
 20
95.397300
 40
0.000000
 41
0.000000
 42
0.000000
  0
VERTEX
  8
PIN_TOP
 10
66.393300
 20
95.397300
 40
0.000000
 41
0.000000
 42
0.000000
  0
SEQEND
  0
POLYLINE
  8
PIN_TOP
 66
1
 70
1
 40
0.000000
 41
0.000000
 39
0.000000
  0
VERTEX
  8
PIN_TOP
 10
75.393300
 20
105.654700
 40
0.000000
 41
0.000000
 42
0.000000
  0
VERTEX
  8
PIN_TOP
 10
74.910700
 20
105.654700
 40
0.000000
 41
0.000000
 42
0.000000
  0
VERTEX
  8
PIN_TOP
 10
74.910700
 20
106.772300
 40
0.000000
 41
0.000000
 42
0.000000
  0
VERTEX
  8
PIN_TOP
 10
75.393300
 20
106.772300
 40
0.000000
 41
0.000000
 42
0.000000
  0
SEQEND
  0
POLYLINE
  8
PIN_TOP
 66
1
 70
1
 40
0.000000
 41
0.000000
 39
0.000000
  0
VERTEX
  8
PIN_TOP
 10
74.493300
 20
105.654700
 40
0.000000
 41
0.000000
 42
0.000000
  0
VERTEX
  8
PIN_TOP
 10
74.010700
 20
105.654700
 40
0.000000
 41
0.000000
 42
0.000000
  0
VERTEX
  8
PIN_TOP
 10
74.010700
 20
106.772300
 40
0.000000
 41
0.000000
 42
0.000000
  0
VERTEX
  8
PIN_TOP
 10
74.493300
 20
106.772300
 40
0.000000
 41
0.000000
 42
0.000000
  0
SEQEND
  0
POLYLINE
  8
PIN_TOP
 66
1
 70
1
 40
0.000000
 41
0.000000
 39
0.000000
  0
VERTEX
  8
PIN_TOP
 10
73.593300
 20
105.654700
 40
0.000000
 41
0.000000
 42
0.000000
  0
VERTEX
  8
PIN_TOP
 10
73.110700
 20
105.654700
 40
0.000000
 41
0.000000
 42
0.000000
  0
VERTEX
  8
PIN_TOP
 10
73.110700
 20
106.772300
 40
0.000000
 41
0.000000
 42
0.000000
  0
VERTEX
  8
PIN_TOP
 10
73.593300
 20
106.772300
 40
0.000000
 41
0.000000
 42
0.000000
  0
SEQEND
  0
POLYLINE
  8
PIN_TOP
 66
1
 70
1
 40
0.000000
 41
0.000000
 39
0.000000
  0
VERTEX
  8
PIN_TOP
 10
72.693300
 20
105.654700
 40
0.000000
 41
0.000000
 42
0.000000
  0
VERTEX
  8
PIN_TOP
 10
72.210700
 20
105.654700
 40
0.000000
 41
0.000000
 42
0.000000
  0
VERTEX
  8
PIN_TOP
 10
72.210700
 20
106.772300
 40
0.000000
 41
0.000000
 42
0.000000
  0
VERTEX
  8
PIN_TOP
 10
72.693300
 20
106.772300
 40
0.000000
 41
0.000000
 42
0.000000
  0
SEQEND
  0
POLYLINE
  8
PIN_TOP
 66
1
 70
1
 40
0.000000
 41
0.000000
 39
0.000000
  0
VERTEX
  8
PIN_TOP
 10
66.393300
 20
105.654700
 40
0.000000
 41
0.000000
 42
0.000000
  0
VERTEX
  8
PIN_TOP
 10
65.910700
 20
105.654700
 40
0.000000
 41
0.000000
 42
0.000000
  0
VERTEX
  8
PIN_TOP
 10
65.910700
 20
106.772300
 40
0.000000
 41
0.000000
 42
0.000000
  0
VERTEX
  8
PIN_TOP
 10
66.393300
 20
106.772300
 40
0.000000
 41
0.000000
 42
0.000000
  0
SEQEND
  0
POLYLINE
  8
PIN_TOP
 66
1
 70
1
 40
0.000000
 41
0.000000
 39
0.000000
  0
VERTEX
  8
PIN_TOP
 10
67.293300
 20
105.654700
 40
0.000000
 41
0.000000
 42
0.000000
  0
VERTEX
  8
PIN_TOP
 10
66.810700
 20
105.654700
 40
0.000000
 41
0.000000
 42
0.000000
  0
VERTEX
  8
PIN_TOP
 10
66.810700
 20
106.772300
 40
0.000000
 41
0.000000
 42
0.000000
  0
VERTEX
  8
PIN_TOP
 10
67.293300
 20
106.772300
 40
0.000000
 41
0.000000
 42
0.000000
  0
SEQEND
  0
POLYLINE
  8
PIN_TOP
 66
1
 70
1
 40
0.000000
 41
0.000000
 39
0.000000
  0
VERTEX
  8
PIN_TOP
 10
68.193300
 20
105.654700
 40
0.000000
 41
0.000000
 42
0.000000
  0
VERTEX
  8
PIN_TOP
 10
67.710700
 20
105.654700
 40
0.000000
 41
0.000000
 42
0.000000
  0
VERTEX
  8
PIN_TOP
 10
67.710700
 20
106.772300
 40
0.000000
 41
0.000000
 42
0.000000
  0
VERTEX
  8
PIN_TOP
 10
68.193300
 20
106.772300
 40
0.000000
 41
0.000000
 42
0.000000
  0
SEQEND
  0
POLYLINE
  8
PIN_TOP
 66
1
 70
1
 40
0.000000
 41
0.000000
 39
0.000000
  0
VERTEX
  8
PIN_TOP
 10
69.093300
 20
105.654700
 40
0.000000
 41
0.000000
 42
0.000000
  0
VERTEX
  8
PIN_TOP
 10
68.610700
 20
105.654700
 40
0.000000
 41
0.000000
 42
0.000000
  0
VERTEX
  8
PIN_TOP
 10
68.610700
 20
106.772300
 40
0.000000
 41
0.000000
 42
0.000000
  0
VERTEX
  8
PIN_TOP
 10
69.093300
 20
106.772300
 40
0.000000
 41
0.000000
 42
0.000000
  0
SEQEND
  0
POLYLINE
  8
PIN_TOP
 66
1
 70
1
 40
0.000000
 41
0.000000
 39
0.000000
  0
VERTEX
  8
PIN_TOP
 10
69.993300
 20
105.654700
 40
0.000000
 41
0.000000
 42
0.000000
  0
VERTEX
  8
PIN_TOP
 10
69.510700
 20
105.654700
 40
0.000000
 41
0.000000
 42
0.000000
  0
VERTEX
  8
PIN_TOP
 10
69.510700
 20
106.772300
 40
0.000000
 41
0.000000
 42
0.000000
  0
VERTEX
  8
PIN_TOP
 10
69.993300
 20
106.772300
 40
0.000000
 41
0.000000
 42
0.000000
  0
SEQEND
  0
POLYLINE
  8
PIN_TOP
 66
1
 70
1
 40
0.000000
 41
0.000000
 39
0.000000
  0
VERTEX
  8
PIN_TOP
 10
71.793300
 20
105.654700
 40
0.000000
 41
0.000000
 42
0.000000
  0
VERTEX
  8
PIN_TOP
 10
71.310700
 20
105.654700
 40
0.000000
 41
0.000000
 42
0.000000
  0
VERTEX
  8
PIN_TOP
 10
71.310700
 20
106.772300
 40
0.000000
 41
0.000000
 42
0.000000
  0
VERTEX
  8
PIN_TOP
 10
71.793300
 20
106.772300
 40
0.000000
 41
0.000000
 42
0.000000
  0
SEQEND
  0
POLYLINE
  8
PIN_TOP
 66
1
 70
1
 40
0.000000
 41
0.000000
 39
0.000000
  0
VERTEX
  8
PIN_TOP
 10
70.893300
 20
105.654700
 40
0.000000
 41
0.000000
 42
0.000000
  0
VERTEX
  8
PIN_TOP
 10
70.410700
 20
105.654700
 40
0.000000
 41
0.000000
 42
0.000000
  0
VERTEX
  8
PIN_TOP
 10
70.410700
 20
106.772300
 40
0.000000
 41
0.000000
 42
0.000000
  0
VERTEX
  8
PIN_TOP
 10
70.893300
 20
106.772300
 40
0.000000
 41
0.000000
 42
0.000000
  0
SEQEND
  0
POLYLINE
  8
PIN_TOP
 66
1
 70
1
 40
0.000000
 41
0.000000
 39
0.000000
  0
VERTEX
  8
PIN_TOP
 10
64.405700
 20
100.284700
 40
0.000000
 41
0.000000
 42
0.000000
  0
VERTEX
  8
PIN_TOP
 10
64.405700
 20
100.767300
 40
0.000000
 41
0.000000
 42
0.000000
  0
VERTEX
  8
PIN_TOP
 10
65.523300
 20
100.767300
 40
0.000000
 41
0.000000
 42
0.000000
  0
VERTEX
  8
PIN_TOP
 10
65.523300
 20
100.284700
 40
0.000000
 41
0.000000
 42
0.000000
  0
SEQEND
  0
POLYLINE
  8
PIN_TOP
 66
1
 70
1
 40
0.000000
 41
0.000000
 39
0.000000
  0
VERTEX
  8
PIN_TOP
 10
64.405700
 20
101.184700
 40
0.000000
 41
0.000000
 42
0.000000
  0
VERTEX
  8
PIN_TOP
 10
64.405700
 20
101.667300
 40
0.000000
 41
0.000000
 42
0.000000
  0
VERTEX
  8
PIN_TOP
 10
65.523300
 20
101.667300
 40
0.000000
 41
0.000000
 42
0.000000
  0
VERTEX
  8
PIN_TOP
 10
65.523300
 20
101.184700
 40
0.000000
 41
0.000000
 42
0.000000
  0
SEQEND
  0
POLYLINE
  8
PIN_TOP
 66
1
 70
1
 40
0.000000
 41
0.000000
 39
0.000000
  0
VERTEX
  8
PIN_TOP
 10
64.405700
 20
102.084700
 40
0.000000
 41
0.000000
 42
0.000000
  0
VERTEX
  8
PIN_TOP
 10
64.405700
 20
102.567300
 40
0.000000
 41
0.000000
 42
0.000000
  0
VERTEX
  8
PIN_TOP
 10
65.523300
 20
102.567300
 40
0.000000
 41
0.000000
 42
0.000000
  0
VERTEX
  8
PIN_TOP
 10
65.523300
 20
102.084700
 40
0.000000
 41
0.000000
 42
0.000000
  0
SEQEND
  0
POLYLINE
  8
PIN_TOP
 66
1
 70
1
 40
0.000000
 41
0.000000
 39
0.000000
  0
VERTEX
  8
PIN_TOP
 10
64.405700
 20
102.984700
 40
0.000000
 41
0.000000
 42
0.000000
  0
VERTEX
  8
PIN_TOP
 10
64.405700
 20
103.467300
 40
0.000000
 41
0.000000
 42
0.000000
  0
VERTEX
  8
PIN_TOP
 10
65.523300
 20
103.467300
 40
0.000000
 41
0.000000
 42
0.000000
  0
VERTEX
  8
PIN_TOP
 10
65.523300
 20
102.984700
 40
0.000000
 41
0.000000
 42
0.000000
  0
SEQEND
  0
POLYLINE
  8
PIN_TOP
 66
1
 70
1
 40
0.000000
 41
0.000000
 39
0.000000
  0
VERTEX
  8
PIN_TOP
 10
64.405700
 20
103.884700
 40
0.000000
 41
0.000000
 42
0.000000
  0
VERTEX
  8
PIN_TOP
 10
64.405700
 20
104.367300
 40
0.000000
 41
0.000000
 42
0.000000
  0
VERTEX
  8
PIN_TOP
 10
65.523300
 20
104.367300
 40
0.000000
 41
0.000000
 42
0.000000
  0
VERTEX
  8
PIN_TOP
 10
65.523300
 20
103.884700
 40
0.000000
 41
0.000000
 42
0.000000
  0
SEQEND
  0
POLYLINE
  8
PIN_TOP
 66
1
 70
1
 40
0.000000
 41
0.000000
 39
0.000000
  0
VERTEX
  8
PIN_TOP
 10
64.405700
 20
104.784700
 40
0.000000
 41
0.000000
 42
0.000000
  0
VERTEX
  8
PIN_TOP
 10
64.405700
 20
105.267300
 40
0.000000
 41
0.000000
 42
0.000000
  0
VERTEX
  8
PIN_TOP
 10
65.523300
 20
105.267300
 40
0.000000
 41
0.000000
 42
0.000000
  0
VERTEX
  8
PIN_TOP
 10
65.523300
 20
104.784700
 40
0.000000
 41
0.000000
 42
0.000000
  0
SEQEND
  0
POLYLINE
  8
PIN_TOP
 66
1
 70
1
 40
0.000000
 41
0.000000
 39
0.000000
  0
VERTEX
  8
PIN_TOP
 10
64.405700
 20
99.384700
 40
0.000000
 41
0.000000
 42
0.000000
  0
VERTEX
  8
PIN_TOP
 10
64.405700
 20
99.867300
 40
0.000000
 41
0.000000
 42
0.000000
  0
VERTEX
  8
PIN_TOP
 10
65.523300
 20
99.867300
 40
0.000000
 41
0.000000
 42
0.000000
  0
VERTEX
  8
PIN_TOP
 10
65.523300
 20
99.384700
 40
0.000000
 41
0.000000
 42
0.000000
  0
SEQEND
  0
POLYLINE
  8
PIN_TOP
 66
1
 70
1
 40
0.000000
 41
0.000000
 39
0.000000
  0
VERTEX
  8
PIN_TOP
 10
64.405700
 20
98.484700
 40
0.000000
 41
0.000000
 42
0.000000
  0
VERTEX
  8
PIN_TOP
 10
64.405700
 20
98.967300
 40
0.000000
 41
0.000000
 42
0.000000
  0
VERTEX
  8
PIN_TOP
 10
65.523300
 20
98.967300
 40
0.000000
 41
0.000000
 42
0.000000
  0
VERTEX
  8
PIN_TOP
 10
65.523300
 20
98.484700
 40
0.000000
 41
0.000000
 42
0.000000
  0
SEQEND
  0
POLYLINE
  8
PIN_TOP
 66
1
 70
1
 40
0.000000
 41
0.000000
 39
0.000000
  0
VERTEX
  8
PIN_TOP
 10
64.405700
 20
97.584700
 40
0.000000
 41
0.000000
 42
0.000000
  0
VERTEX
  8
PIN_TOP
 10
64.405700
 20
98.067300
 40
0.000000
 41
0.000000
 42
0.000000
  0
VERTEX
  8
PIN_TOP
 10
65.523300
 20
98.067300
 40
0.000000
 41
0.000000
 42
0.000000
  0
VERTEX
  8
PIN_TOP
 10
65.523300
 20
97.584700
 40
0.000000
 41
0.000000
 42
0.000000
  0
SEQEND
  0
POLYLINE
  8
PIN_TOP
 66
1
 70
1
 40
0.000000
 41
0.000000
 39
0.000000
  0
VERTEX
  8
PIN_TOP
 10
64.405700
 20
96.684700
 40
0.000000
 41
0.000000
 42
0.000000
  0
VERTEX
  8
PIN_TOP
 10
64.405700
 20
97.167300
 40
0.000000
 41
0.000000
 42
0.000000
  0
VERTEX
  8
PIN_TOP
 10
65.523300
 20
97.167300
 40
0.000000
 41
0.000000
 42
0.000000
  0
VERTEX
  8
PIN_TOP
 10
65.523300
 20
96.684700
 40
0.000000
 41
0.000000
 42
0.000000
  0
SEQEND
  0
POLYLINE
  8
PIN_TOP
 66
1
 70
1
 40
0.000000
 41
0.000000
 39
0.000000
  0
VERTEX
  8
PIN_TOP
 10
64.405700
 20
95.784700
 40
0.000000
 41
0.000000
 42
0.000000
  0
VERTEX
  8
PIN_TOP
 10
64.405700
 20
96.267300
 40
0.000000
 41
0.000000
 42
0.000000
  0
VERTEX
  8
PIN_TOP
 10
65.523300
 20
96.267300
 40
0.000000
 41
0.000000
 42
0.000000
  0
VERTEX
  8
PIN_TOP
 10
65.523300
 20
95.784700
 40
0.000000
 41
0.000000
 42
0.000000
  0
SEQEND
  0
POLYLINE
  8
PIN_TOP
 66
1
 70
1
 40
0.000000
 41
0.000000
 39
0.000000
  0
VERTEX
  8
PIN_TOP
 10
75.780700
 20
95.784700
 40
0.000000
 41
0.000000
 42
0.000000
  0
VERTEX
  8
PIN_TOP
 10
75.780700
 20
96.267300
 40
0.000000
 41
0.000000
 42
0.000000
  0
VERTEX
  8
PIN_TOP
 10
76.898300
 20
96.267300
 40
0.000000
 41
0.000000
 42
0.000000
  0
VERTEX
  8
PIN_TOP
 10
76.898300
 20
95.784700
 40
0.000000
 41
0.000000
 42
0.000000
  0
SEQEND
  0
POLYLINE
  8
PIN_TOP
 66
1
 70
1
 40
0.000000
 41
0.000000
 39
0.000000
  0
VERTEX
  8
PIN_TOP
 10
75.780700
 20
96.684700
 40
0.000000
 41
0.000000
 42
0.000000
  0
VERTEX
  8
PIN_TOP
 10
75.780700
 20
97.167300
 40
0.000000
 41
0.000000
 42
0.000000
  0
VERTEX
  8
PIN_TOP
 10
76.898300
 20
97.167300
 40
0.000000
 41
0.000000
 42
0.000000
  0
VERTEX
  8
PIN_TOP
 10
76.898300
 20
96.684700
 40
0.000000
 41
0.000000
 42
0.000000
  0
SEQEND
  0
POLYLINE
  8
PIN_TOP
 66
1
 70
1
 40
0.000000
 41
0.000000
 39
0.000000
  0
VERTEX
  8
PIN_TOP
 10
75.780700
 20
97.584700
 40
0.000000
 41
0.000000
 42
0.000000
  0
VERTEX
  8
PIN_TOP
 10
75.780700
 20
98.067300
 40
0.000000
 41
0.000000
 42
0.000000
  0
VERTEX
  8
PIN_TOP
 10
76.898300
 20
98.067300
 40
0.000000
 41
0.000000
 42
0.000000
  0
VERTEX
  8
PIN_TOP
 10
76.898300
 20
97.584700
 40
0.000000
 41
0.000000
 42
0.000000
  0
SEQEND
  0
POLYLINE
  8
PIN_TOP
 66
1
 70
1
 40
0.000000
 41
0.000000
 39
0.000000
  0
VERTEX
  8
PIN_TOP
 10
75.780700
 20
98.484700
 40
0.000000
 41
0.000000
 42
0.000000
  0
VERTEX
  8
PIN_TOP
 10
75.780700
 20
98.967300
 40
0.000000
 41
0.000000
 42
0.000000
  0
VERTEX
  8
PIN_TOP
 10
76.898300
 20
98.967300
 40
0.000000
 41
0.000000
 42
0.000000
  0
VERTEX
  8
PIN_TOP
 10
76.898300
 20
98.484700
 40
0.000000
 41
0.000000
 42
0.000000
  0
SEQEND
  0
POLYLINE
  8
PIN_TOP
 66
1
 70
1
 40
0.000000
 41
0.000000
 39
0.000000
  0
VERTEX
  8
PIN_TOP
 10
75.780700
 20
99.384700
 40
0.000000
 41
0.000000
 42
0.000000
  0
VERTEX
  8
PIN_TOP
 10
75.780700
 20
99.867300
 40
0.000000
 41
0.000000
 42
0.000000
  0
VERTEX
  8
PIN_TOP
 10
76.898300
 20
99.867300
 40
0.000000
 41
0.000000
 42
0.000000
  0
VERTEX
  8
PIN_TOP
 10
76.898300
 20
99.384700
 40
0.000000
 41
0.000000
 42
0.000000
  0
SEQEND
  0
POLYLINE
  8
PIN_TOP
 66
1
 70
1
 40
0.000000
 41
0.000000
 39
0.000000
  0
VERTEX
  8
PIN_TOP
 10
75.780700
 20
104.784700
 40
0.000000
 41
0.000000
 42
0.000000
  0
VERTEX
  8
PIN_TOP
 10
75.780700
 20
105.267300
 40
0.000000
 41
0.000000
 42
0.000000
  0
VERTEX
  8
PIN_TOP
 10
76.898300
 20
105.267300
 40
0.000000
 41
0.000000
 42
0.000000
  0
VERTEX
  8
PIN_TOP
 10
76.898300
 20
104.784700
 40
0.000000
 41
0.000000
 42
0.000000
  0
SEQEND
  0
POLYLINE
  8
PIN_TOP
 66
1
 70
1
 40
0.000000
 41
0.000000
 39
0.000000
  0
VERTEX
  8
PIN_TOP
 10
75.780700
 20
103.884700
 40
0.000000
 41
0.000000
 42
0.000000
  0
VERTEX
  8
PIN_TOP
 10
75.780700
 20
104.367300
 40
0.000000
 41
0.000000
 42
0.000000
  0
VERTEX
  8
PIN_TOP
 10
76.898300
 20
104.367300
 40
0.000000
 41
0.000000
 42
0.000000
  0
VERTEX
  8
PIN_TOP
 10
76.898300
 20
103.884700
 40
0.000000
 41
0.000000
 42
0.000000
  0
SEQEND
  0
POLYLINE
  8
PIN_TOP
 66
1
 70
1
 40
0.000000
 41
0.000000
 39
0.000000
  0
VERTEX
  8
PIN_TOP
 10
75.780700
 20
102.984700
 40
0.000000
 41
0.000000
 42
0.000000
  0
VERTEX
  8
PIN_TOP
 10
75.780700
 20
103.467300
 40
0.000000
 41
0.000000
 42
0.000000
  0
VERTEX
  8
PIN_TOP
 10
76.898300
 20
103.467300
 40
0.000000
 41
0.000000
 42
0.000000
  0
VERTEX
  8
PIN_TOP
 10
76.898300
 20
102.984700
 40
0.000000
 41
0.000000
 42
0.000000
  0
SEQEND
  0
POLYLINE
  8
PIN_TOP
 66
1
 70
1
 40
0.000000
 41
0.000000
 39
0.000000
  0
VERTEX
  8
PIN_TOP
 10
75.780700
 20
102.084700
 40
0.000000
 41
0.000000
 42
0.000000
  0
VERTEX
  8
PIN_TOP
 10
75.780700
 20
102.567300
 40
0.000000
 41
0.000000
 42
0.000000
  0
VERTEX
  8
PIN_TOP
 10
76.898300
 20
102.567300
 40
0.000000
 41
0.000000
 42
0.000000
  0
VERTEX
  8
PIN_TOP
 10
76.898300
 20
102.084700
 40
0.000000
 41
0.000000
 42
0.000000
  0
SEQEND
  0
POLYLINE
  8
PIN_TOP
 66
1
 70
1
 40
0.000000
 41
0.000000
 39
0.000000
  0
VERTEX
  8
PIN_TOP
 10
75.780700
 20
101.184700
 40
0.000000
 41
0.000000
 42
0.000000
  0
VERTEX
  8
PIN_TOP
 10
75.780700
 20
101.667300
 40
0.000000
 41
0.000000
 42
0.000000
  0
VERTEX
  8
PIN_TOP
 10
76.898300
 20
101.667300
 40
0.000000
 41
0.000000
 42
0.000000
  0
VERTEX
  8
PIN_TOP
 10
76.898300
 20
101.184700
 40
0.000000
 41
0.000000
 42
0.000000
  0
SEQEND
  0
POLYLINE
  8
PIN_TOP
 66
1
 70
1
 40
0.000000
 41
0.000000
 39
0.000000
  0
VERTEX
  8
PIN_TOP
 10
75.780700
 20
100.284700
 40
0.000000
 41
0.000000
 42
0.000000
  0
VERTEX
  8
PIN_TOP
 10
75.780700
 20
100.767300
 40
0.000000
 41
0.000000
 42
0.000000
  0
VERTEX
  8
PIN_TOP
 10
76.898300
 20
100.767300
 40
0.000000
 41
0.000000
 42
0.000000
  0
VERTEX
  8
PIN_TOP
 10
76.898300
 20
100.284700
 40
0.000000
 41
0.000000
 42
0.000000
  0
SEQEND
  0
POLYLINE
  8
PG_SILKSCREEN_TOP
 66
1
 70
0
 40
0.000000
 41
0.000000
 39
0.000000
  0
VERTEX
  8
PG_SILKSCREEN_TOP
 10
64.652000
 20
105.526000
 40
0.200000
 41
0.200000
 42
0.000000
  0
VERTEX
  8
PG_SILKSCREEN_TOP
 10
64.652000
 20
106.526000
 40
0.200000
 41
0.200000
 42
0.000000
  0
VERTEX
  8
PG_SILKSCREEN_TOP
 10
65.752000
 20
106.526000
 40
0.200000
 41
0.200000
 42
0.000000
  0
SEQEND
  0
POLYLINE
  8
PG_SILKSCREEN_TOP
 66
1
 70
0
 40
0.000000
 41
0.000000
 39
0.000000
  0
VERTEX
  8
PG_SILKSCREEN_TOP
 10
75.552000
 20
106.526000
 40
0.200000
 41
0.200000
 42
0.000000
  0
VERTEX
  8
PG_SILKSCREEN_TOP
 10
76.652000
 20
106.526000
 40
0.200000
 41
0.200000
 42
0.000000
  0
VERTEX
  8
PG_SILKSCREEN_TOP
 10
76.652000
 20
105.426000
 40
0.200000
 41
0.200000
 42
0.000000
  0
SEQEND
  0
POLYLINE
  8
PG_SILKSCREEN_TOP
 66
1
 70
0
 40
0.000000
 41
0.000000
 39
0.000000
  0
VERTEX
  8
PG_SILKSCREEN_TOP
 10
76.652000
 20
95.526000
 40
0.200000
 41
0.200000
 42
0.000000
  0
VERTEX
  8
PG_SILKSCREEN_TOP
 10
76.652000
 20
94.526000
 40
0.200000
 41
0.200000
 42
0.000000
  0
VERTEX
  8
PG_SILKSCREEN_TOP
 10
75.552000
 20
94.526000
 40
0.200000
 41
0.200000
 42
0.000000
  0
SEQEND
  0
POLYLINE
  8
PG_SILKSCREEN_TOP
 66
1
 70
1
 40
0.000000
 41
0.000000
 39
0.000000
  0
VERTEX
  8
PG_SILKSCREEN_TOP
 10
64.652000
 20
95.626000
 40
0.200000
 41
0.200000
 42
0.000000
  0
VERTEX
  8
PG_SILKSCREEN_TOP
 10
64.652000
 20
94.526000
 40
0.200000
 41
0.200000
 42
0.000000
  0
VERTEX
  8
PG_SILKSCREEN_TOP
 10
65.752000
 20
94.526000
 40
0.200000
 41
0.200000
 42
0.000000
  0
SEQEND
  0
POLYLINE
  8
PG_SILKSCREEN_TOP
 66
1
 70
1
 40
0.000000
 41
0.000000
 39
0.000000
  0
VERTEX
  8
PG_SILKSCREEN_TOP
 10
64.652000
 20
95.326000
 40
0.000000
 41
0.000000
 42
0.000000
  0
VERTEX
  8
PG_SILKSCREEN_TOP
 10
64.052000
 20
95.326000
 40
0.000000
 41
0.000000
 42
0.000000
  0
VERTEX
  8
PG_SILKSCREEN_TOP
 10
64.052000
 20
94.026000
 40
0.000000
 41
0.000000
 42
0.000000
  0
VERTEX
  8
PG_SILKSCREEN_TOP
 10
65.552000
 20
94.026000
 40
0.000000
 41
0.000000
 42
0.000000
  0
VERTEX
  8
PG_SILKSCREEN_TOP
 10
65.552000
 20
94.526000
 40
0.000000
 41
0.000000
 42
0.000000
  0
VERTEX
  8
PG_SILKSCREEN_TOP
 10
64.652000
 20
94.526000
 40
0.000000
 41
0.000000
 42
0.000000
  0
SEQEND
  0
CIRCLE
  8
PIN_TOP
 10
82.450100
 20
109.300100
 40
0.139700
  0
CIRCLE
  8
PIN_TOP
 10
83.100100
 20
109.300100
 40
0.139700
  0
CIRCLE
  8
PIN_TOP
 10
83.750100
 20
109.300100
 40
0.139700
  0
CIRCLE
  8
PIN_TOP
 10
84.400100
 20
109.300100
 40
0.139700
  0
CIRCLE
  8
PIN_TOP
 10
85.050100
 20
109.300100
 40
0.139700
  0
CIRCLE
  8
PIN_TOP
 10
85.700100
 20
109.300100
 40
0.139700
  0
CIRCLE
  8
PIN_TOP
 10
86.350100
 20
109.300100
 40
0.139700
  0
CIRCLE
  8
PIN_TOP
 10
87.000100
 20
109.300100
 40
0.139700
  0
CIRCLE
  8
PIN_TOP
 10
87.650100
 20
109.300100
 40
0.139700
  0
CIRCLE
  8
PIN_TOP
 10
88.300100
 20
109.300100
 40
0.139700
  0
CIRCLE
  8
PIN_TOP
 10
88.950100
 20
109.300100
 40
0.139700
  0
CIRCLE
  8
PIN_TOP
 10
89.600100
 20
109.300100
 40
0.139700
  0
CIRCLE
  8
PIN_TOP
 10
90.250100
 20
109.300100
 40
0.139700
  0
CIRCLE
  8
PIN_TOP
 10
90.900100
 20
109.300100
 40
0.139700
  0
CIRCLE
  8
PIN_TOP
 10
91.550100
 20
109.300100
 40
0.139700
  0
CIRCLE
  8
PIN_TOP
 10
92.200100
 20
109.300100
 40
0.139700
  0
CIRCLE
  8
PIN_TOP
 10
92.850100
 20
109.300100
 40
0.139700
  0
CIRCLE
  8
PIN_TOP
 10
93.500100
 20
109.300100
 40
0.139700
  0
CIRCLE
  8
PIN_TOP
 10
94.150100
 20
109.300100
 40
0.139700
  0
CIRCLE
  8
PIN_TOP
 10
81.800100
 20
108.650100
 40
0.139700
  0
CIRCLE
  8
PIN_TOP
 10
82.450100
 20
108.650100
 40
0.139700
  0
CIRCLE
  8
PIN_TOP
 10
83.100100
 20
108.650100
 40
0.139700
  0
CIRCLE
  8
PIN_TOP
 10
83.750100
 20
108.650100
 40
0.139700
  0
CIRCLE
  8
PIN_TOP
 10
84.400100
 20
108.650100
 40
0.139700
  0
CIRCLE
  8
PIN_TOP
 10
85.050100
 20
108.650100
 40
0.139700
  0
CIRCLE
  8
PIN_TOP
 10
85.700100
 20
108.650100
 40
0.139700
  0
CIRCLE
  8
PIN_TOP
 10
86.350100
 20
108.650100
 40
0.139700
  0
CIRCLE
  8
PIN_TOP
 10
87.000100
 20
108.650100
 40
0.139700
  0
CIRCLE
  8
PIN_TOP
 10
87.650100
 20
108.650100
 40
0.139700
  0
CIRCLE
  8
PIN_TOP
 10
88.300100
 20
108.650100
 40
0.139700
  0
CIRCLE
  8
PIN_TOP
 10
88.950100
 20
108.650100
 40
0.139700
  0
CIRCLE
  8
PIN_TOP
 10
89.600100
 20
108.650100
 40
0.139700
  0
CIRCLE
  8
PIN_TOP
 10
90.250100
 20
108.650100
 40
0.139700
  0
CIRCLE
  8
PIN_TOP
 10
90.900100
 20
108.650100
 40
0.139700
  0
CIRCLE
  8
PIN_TOP
 10
91.550100
 20
108.650100
 40
0.139700
  0
CIRCLE
  8
PIN_TOP
 10
92.200100
 20
108.650100
 40
0.139700
  0
CIRCLE
  8
PIN_TOP
 10
92.850100
 20
108.650100
 40
0.139700
  0
CIRCLE
  8
PIN_TOP
 10
93.500100
 20
108.650100
 40
0.139700
  0
CIRCLE
  8
PIN_TOP
 10
94.150100
 20
108.650100
 40
0.139700
  0
CIRCLE
  8
PIN_TOP
 10
94.800100
 20
108.650100
 40
0.139700
  0
CIRCLE
  8
PIN_TOP
 10
81.800100
 20
108.000100
 40
0.139700
  0
CIRCLE
  8
PIN_TOP
 10
82.450100
 20
108.000100
 40
0.139700
  0
CIRCLE
  8
PIN_TOP
 10
83.100100
 20
108.000100
 40
0.139700
  0
CIRCLE
  8
PIN_TOP
 10
83.750100
 20
108.000100
 40
0.139700
  0
CIRCLE
  8
PIN_TOP
 10
84.400100
 20
108.000100
 40
0.139700
  0
CIRCLE
  8
PIN_TOP
 10
85.050100
 20
108.000100
 40
0.139700
  0
CIRCLE
  8
PIN_TOP
 10
85.700100
 20
108.000100
 40
0.139700
  0
CIRCLE
  8
PIN_TOP
 10
86.350100
 20
108.000100
 40
0.139700
  0
CIRCLE
  8
PIN_TOP
 10
87.000100
 20
108.000100
 40
0.139700
  0
CIRCLE
  8
PIN_TOP
 10
87.650100
 20
108.000100
 40
0.139700
  0
CIRCLE
  8
PIN_TOP
 10
88.300100
 20
108.000100
 40
0.139700
  0
CIRCLE
  8
PIN_TOP
 10
88.950100
 20
108.000100
 40
0.139700
  0
CIRCLE
  8
PIN_TOP
 10
89.600100
 20
108.000100
 40
0.139700
  0
CIRCLE
  8
PIN_TOP
 10
90.250100
 20
108.000100
 40
0.139700
  0
CIRCLE
  8
PIN_TOP
 10
90.900100
 20
108.000100
 40
0.139700
  0
CIRCLE
  8
PIN_TOP
 10
91.550100
 20
108.000100
 40
0.139700
  0
CIRCLE
  8
PIN_TOP
 10
92.200100
 20
108.000100
 40
0.139700
  0
CIRCLE
  8
PIN_TOP
 10
92.850100
 20
108.000100
 40
0.139700
  0
CIRCLE
  8
PIN_TOP
 10
93.500100
 20
108.000100
 40
0.139700
  0
CIRCLE
  8
PIN_TOP
 10
94.150100
 20
108.000100
 40
0.139700
  0
CIRCLE
  8
PIN_TOP
 10
94.800100
 20
108.000100
 40
0.139700
  0
CIRCLE
  8
PIN_TOP
 10
81.800100
 20
107.350100
 40
0.139700
  0
CIRCLE
  8
PIN_TOP
 10
82.450100
 20
107.350100
 40
0.139700
  0
CIRCLE
  8
PIN_TOP
 10
83.100100
 20
107.350100
 40
0.139700
  0
CIRCLE
  8
PIN_TOP
 10
83.750100
 20
107.350100
 40
0.139700
  0
CIRCLE
  8
PIN_TOP
 10
84.400100
 20
107.350100
 40
0.139700
  0
CIRCLE
  8
PIN_TOP
 10
85.050100
 20
107.350100
 40
0.139700
  0
CIRCLE
  8
PIN_TOP
 10
85.700100
 20
107.350100
 40
0.139700
  0
CIRCLE
  8
PIN_TOP
 10
86.350100
 20
107.350100
 40
0.139700
  0
CIRCLE
  8
PIN_TOP
 10
87.000100
 20
107.350100
 40
0.139700
  0
CIRCLE
  8
PIN_TOP
 10
87.650100
 20
107.350100
 40
0.139700
  0
CIRCLE
  8
PIN_TOP
 10
88.300100
 20
107.350100
 40
0.139700
  0
CIRCLE
  8
PIN_TOP
 10
88.950100
 20
107.350100
 40
0.139700
  0
CIRCLE
  8
PIN_TOP
 10
89.600100
 20
107.350100
 40
0.139700
  0
CIRCLE
  8
PIN_TOP
 10
90.250100
 20
107.350100
 40
0.139700
  0
CIRCLE
  8
PIN_TOP
 10
90.900100
 20
107.350100
 40
0.139700
  0
CIRCLE
  8
PIN_TOP
 10
91.550100
 20
107.350100
 40
0.139700
  0
CIRCLE
  8
PIN_TOP
 10
92.200100
 20
107.350100
 40
0.139700
  0
CIRCLE
  8
PIN_TOP
 10
92.850100
 20
107.350100
 40
0.139700
  0
CIRCLE
  8
PIN_TOP
 10
93.500100
 20
107.350100
 40
0.139700
  0
CIRCLE
  8
PIN_TOP
 10
94.150100
 20
107.350100
 40
0.139700
  0
CIRCLE
  8
PIN_TOP
 10
94.800100
 20
107.350100
 40
0.139700
  0
CIRCLE
  8
PIN_TOP
 10
81.800100
 20
106.700100
 40
0.139700
  0
CIRCLE
  8
PIN_TOP
 10
82.450100
 20
106.700100
 40
0.139700
  0
CIRCLE
  8
PIN_TOP
 10
83.100100
 20
106.700100
 40
0.139700
  0
CIRCLE
  8
PIN_TOP
 10
83.750100
 20
106.700100
 40
0.139700
  0
CIRCLE
  8
PIN_TOP
 10
92.850100
 20
106.700100
 40
0.139700
  0
CIRCLE
  8
PIN_TOP
 10
93.500100
 20
106.700100
 40
0.139700
  0
CIRCLE
  8
PIN_TOP
 10
94.150100
 20
106.700100
 40
0.139700
  0
CIRCLE
  8
PIN_TOP
 10
94.800100
 20
106.700100
 40
0.139700
  0
CIRCLE
  8
PIN_TOP
 10
81.800100
 20
106.050100
 40
0.139700
  0
CIRCLE
  8
PIN_TOP
 10
82.450100
 20
106.050100
 40
0.139700
  0
CIRCLE
  8
PIN_TOP
 10
83.100100
 20
106.050100
 40
0.139700
  0
CIRCLE
  8
PIN_TOP
 10
83.750100
 20
106.050100
 40
0.139700
  0
CIRCLE
  8
PIN_TOP
 10
85.050100
 20
106.050100
 40
0.139700
  0
CIRCLE
  8
PIN_TOP
 10
85.700100
 20
106.050100
 40
0.139700
  0
CIRCLE
  8
PIN_TOP
 10
86.350100
 20
106.050100
 40
0.139700
  0
CIRCLE
  8
PIN_TOP
 10
87.000100
 20
106.050100
 40
0.139700
  0
CIRCLE
  8
PIN_TOP
 10
87.650100
 20
106.050100
 40
0.139700
  0
CIRCLE
  8
PIN_TOP
 10
88.300100
 20
106.050100
 40
0.139700
  0
CIRCLE
  8
PIN_TOP
 10
88.950100
 20
106.050100
 40
0.139700
  0
CIRCLE
  8
PIN_TOP
 10
89.600100
 20
106.050100
 40
0.139700
  0
CIRCLE
  8
PIN_TOP
 10
90.250100
 20
106.050100
 40
0.139700
  0
CIRCLE
  8
PIN_TOP
 10
90.900100
 20
106.050100
 40
0.139700
  0
CIRCLE
  8
PIN_TOP
 10
91.550100
 20
106.050100
 40
0.139700
  0
CIRCLE
  8
PIN_TOP
 10
92.850100
 20
106.050100
 40
0.139700
  0
CIRCLE
  8
PIN_TOP
 10
93.500100
 20
106.050100
 40
0.139700
  0
CIRCLE
  8
PIN_TOP
 10
94.150100
 20
106.050100
 40
0.139700
  0
CIRCLE
  8
PIN_TOP
 10
94.800100
 20
106.050100
 40
0.139700
  0
CIRCLE
  8
PIN_TOP
 10
81.800100
 20
105.400100
 40
0.139700
  0
CIRCLE
  8
PIN_TOP
 10
82.450100
 20
105.400100
 40
0.139700
  0
CIRCLE
  8
PIN_TOP
 10
83.100100
 20
105.400100
 40
0.139700
  0
CIRCLE
  8
PIN_TOP
 10
83.750100
 20
105.400100
 40
0.139700
  0
CIRCLE
  8
PIN_TOP
 10
85.050100
 20
105.400100
 40
0.139700
  0
CIRCLE
  8
PIN_TOP
 10
85.700100
 20
105.400100
 40
0.139700
  0
CIRCLE
  8
PIN_TOP
 10
86.350100
 20
105.400100
 40
0.139700
  0
CIRCLE
  8
PIN_TOP
 10
87.000100
 20
105.400100
 40
0.139700
  0
CIRCLE
  8
PIN_TOP
 10
87.650100
 20
105.400100
 40
0.139700
  0
CIRCLE
  8
PIN_TOP
 10
88.300100
 20
105.400100
 40
0.139700
  0
CIRCLE
  8
PIN_TOP
 10
88.950100
 20
105.400100
 40
0.139700
  0
CIRCLE
  8
PIN_TOP
 10
89.600100
 20
105.400100
 40
0.139700
  0
CIRCLE
  8
PIN_TOP
 10
90.250100
 20
105.400100
 40
0.139700
  0
CIRCLE
  8
PIN_TOP
 10
90.900100
 20
105.400100
 40
0.139700
  0
CIRCLE
  8
PIN_TOP
 10
91.550100
 20
105.400100
 40
0.139700
  0
CIRCLE
  8
PIN_TOP
 10
92.850100
 20
105.400100
 40
0.139700
  0
CIRCLE
  8
PIN_TOP
 10
93.500100
 20
105.400100
 40
0.139700
  0
CIRCLE
  8
PIN_TOP
 10
94.150100
 20
105.400100
 40
0.139700
  0
CIRCLE
  8
PIN_TOP
 10
94.800100
 20
105.400100
 40
0.139700
  0
CIRCLE
  8
PIN_TOP
 10
81.800100
 20
104.750100
 40
0.139700
  0
CIRCLE
  8
PIN_TOP
 10
82.450100
 20
104.750100
 40
0.139700
  0
CIRCLE
  8
PIN_TOP
 10
83.100100
 20
104.750100
 40
0.139700
  0
CIRCLE
  8
PIN_TOP
 10
83.750100
 20
104.750100
 40
0.139700
  0
CIRCLE
  8
PIN_TOP
 10
85.050100
 20
104.750100
 40
0.139700
  0
CIRCLE
  8
PIN_TOP
 10
85.700100
 20
104.750100
 40
0.139700
  0
CIRCLE
  8
PIN_TOP
 10
86.350100
 20
104.750100
 40
0.139700
  0
CIRCLE
  8
PIN_TOP
 10
87.000100
 20
104.750100
 40
0.139700
  0
CIRCLE
  8
PIN_TOP
 10
87.650100
 20
104.750100
 40
0.139700
  0
CIRCLE
  8
PIN_TOP
 10
88.300100
 20
104.750100
 40
0.139700
  0
CIRCLE
  8
PIN_TOP
 10
88.950100
 20
104.750100
 40
0.139700
  0
CIRCLE
  8
PIN_TOP
 10
89.600100
 20
104.750100
 40
0.139700
  0
CIRCLE
  8
PIN_TOP
 10
90.250100
 20
104.750100
 40
0.139700
  0
CIRCLE
  8
PIN_TOP
 10
90.900100
 20
104.750100
 40
0.139700
  0
CIRCLE
  8
PIN_TOP
 10
91.550100
 20
104.750100
 40
0.139700
  0
CIRCLE
  8
PIN_TOP
 10
92.850100
 20
104.750100
 40
0.139700
  0
CIRCLE
  8
PIN_TOP
 10
93.500100
 20
104.750100
 40
0.139700
  0
CIRCLE
  8
PIN_TOP
 10
94.150100
 20
104.750100
 40
0.139700
  0
CIRCLE
  8
PIN_TOP
 10
94.800100
 20
104.750100
 40
0.139700
  0
CIRCLE
  8
PIN_TOP
 10
81.800100
 20
104.100100
 40
0.139700
  0
CIRCLE
  8
PIN_TOP
 10
82.450100
 20
104.100100
 40
0.139700
  0
CIRCLE
  8
PIN_TOP
 10
83.100100
 20
104.100100
 40
0.139700
  0
CIRCLE
  8
PIN_TOP
 10
83.750100
 20
104.100100
 40
0.139700
  0
CIRCLE
  8
PIN_TOP
 10
85.050100
 20
104.100100
 40
0.139700
  0
CIRCLE
  8
PIN_TOP
 10
85.700100
 20
104.100100
 40
0.139700
  0
CIRCLE
  8
PIN_TOP
 10
86.350100
 20
104.100100
 40
0.139700
  0
CIRCLE
  8
PIN_TOP
 10
87.000100
 20
104.100100
 40
0.139700
  0
CIRCLE
  8
PIN_TOP
 10
87.650100
 20
104.100100
 40
0.139700
  0
CIRCLE
  8
PIN_TOP
 10
88.300100
 20
104.100100
 40
0.139700
  0
CIRCLE
  8
PIN_TOP
 10
88.950100
 20
104.100100
 40
0.139700
  0
CIRCLE
  8
PIN_TOP
 10
89.600100
 20
104.100100
 40
0.139700
  0
CIRCLE
  8
PIN_TOP
 10
90.250100
 20
104.100100
 40
0.139700
  0
CIRCLE
  8
PIN_TOP
 10
90.900100
 20
104.100100
 40
0.139700
  0
CIRCLE
  8
PIN_TOP
 10
91.550100
 20
104.100100
 40
0.139700
  0
CIRCLE
  8
PIN_TOP
 10
92.850100
 20
104.100100
 40
0.139700
  0
CIRCLE
  8
PIN_TOP
 10
93.500100
 20
104.100100
 40
0.139700
  0
CIRCLE
  8
PIN_TOP
 10
94.150100
 20
104.100100
 40
0.139700
  0
CIRCLE
  8
PIN_TOP
 10
94.800100
 20
104.100100
 40
0.139700
  0
CIRCLE
  8
PIN_TOP
 10
81.800100
 20
103.450100
 40
0.139700
  0
CIRCLE
  8
PIN_TOP
 10
82.450100
 20
103.450100
 40
0.139700
  0
CIRCLE
  8
PIN_TOP
 10
83.100100
 20
103.450100
 40
0.139700
  0
CIRCLE
  8
PIN_TOP
 10
83.750100
 20
103.450100
 40
0.139700
  0
CIRCLE
  8
PIN_TOP
 10
85.050100
 20
103.450100
 40
0.139700
  0
CIRCLE
  8
PIN_TOP
 10
85.700100
 20
103.450100
 40
0.139700
  0
CIRCLE
  8
PIN_TOP
 10
86.350100
 20
103.450100
 40
0.139700
  0
CIRCLE
  8
PIN_TOP
 10
87.000100
 20
103.450100
 40
0.139700
  0
CIRCLE
  8
PIN_TOP
 10
89.600100
 20
103.450100
 40
0.139700
  0
CIRCLE
  8
PIN_TOP
 10
90.250100
 20
103.450100
 40
0.139700
  0
CIRCLE
  8
PIN_TOP
 10
90.900100
 20
103.450100
 40
0.139700
  0
CIRCLE
  8
PIN_TOP
 10
91.550100
 20
103.450100
 40
0.139700
  0
CIRCLE
  8
PIN_TOP
 10
92.850100
 20
103.450100
 40
0.139700
  0
CIRCLE
  8
PIN_TOP
 10
93.500100
 20
103.450100
 40
0.139700
  0
CIRCLE
  8
PIN_TOP
 10
94.150100
 20
103.450100
 40
0.139700
  0
CIRCLE
  8
PIN_TOP
 10
94.800100
 20
103.450100
 40
0.139700
  0
CIRCLE
  8
PIN_TOP
 10
81.800100
 20
102.800100
 40
0.139700
  0
CIRCLE
  8
PIN_TOP
 10
82.450100
 20
102.800100
 40
0.139700
  0
CIRCLE
  8
PIN_TOP
 10
83.100100
 20
102.800100
 40
0.139700
  0
CIRCLE
  8
PIN_TOP
 10
83.750100
 20
102.800100
 40
0.139700
  0
CIRCLE
  8
PIN_TOP
 10
85.050100
 20
102.800100
 40
0.139700
  0
CIRCLE
  8
PIN_TOP
 10
85.700100
 20
102.800100
 40
0.139700
  0
CIRCLE
  8
PIN_TOP
 10
86.350100
 20
102.800100
 40
0.139700
  0
CIRCLE
  8
PIN_TOP
 10
87.000100
 20
102.800100
 40
0.139700
  0
CIRCLE
  8
PIN_TOP
 10
89.600100
 20
102.800100
 40
0.139700
  0
CIRCLE
  8
PIN_TOP
 10
90.250100
 20
102.800100
 40
0.139700
  0
CIRCLE
  8
PIN_TOP
 10
90.900100
 20
102.800100
 40
0.139700
  0
CIRCLE
  8
PIN_TOP
 10
91.550100
 20
102.800100
 40
0.139700
  0
CIRCLE
  8
PIN_TOP
 10
92.850100
 20
102.800100
 40
0.139700
  0
CIRCLE
  8
PIN_TOP
 10
93.500100
 20
102.800100
 40
0.139700
  0
CIRCLE
  8
PIN_TOP
 10
94.150100
 20
102.800100
 40
0.139700
  0
CIRCLE
  8
PIN_TOP
 10
94.800100
 20
102.800100
 40
0.139700
  0
CIRCLE
  8
PIN_TOP
 10
81.800100
 20
102.150100
 40
0.139700
  0
CIRCLE
  8
PIN_TOP
 10
82.450100
 20
102.150100
 40
0.139700
  0
CIRCLE
  8
PIN_TOP
 10
83.100100
 20
102.150100
 40
0.139700
  0
CIRCLE
  8
PIN_TOP
 10
83.750100
 20
102.150100
 40
0.139700
  0
CIRCLE
  8
PIN_TOP
 10
85.050100
 20
102.150100
 40
0.139700
  0
CIRCLE
  8
PIN_TOP
 10
85.700100
 20
102.150100
 40
0.139700
  0
CIRCLE
  8
PIN_TOP
 10
86.350100
 20
102.150100
 40
0.139700
  0
CIRCLE
  8
PIN_TOP
 10
87.000100
 20
102.150100
 40
0.139700
  0
CIRCLE
  8
PIN_TOP
 10
89.600100
 20
102.150100
 40
0.139700
  0
CIRCLE
  8
PIN_TOP
 10
90.250100
 20
102.150100
 40
0.139700
  0
CIRCLE
  8
PIN_TOP
 10
90.900100
 20
102.150100
 40
0.139700
  0
CIRCLE
  8
PIN_TOP
 10
91.550100
 20
102.150100
 40
0.139700
  0
CIRCLE
  8
PIN_TOP
 10
92.850100
 20
102.150100
 40
0.139700
  0
CIRCLE
  8
PIN_TOP
 10
93.500100
 20
102.150100
 40
0.139700
  0
CIRCLE
  8
PIN_TOP
 10
94.150100
 20
102.150100
 40
0.139700
  0
CIRCLE
  8
PIN_TOP
 10
94.800100
 20
102.150100
 40
0.139700
  0
CIRCLE
  8
PIN_TOP
 10
81.800100
 20
101.500100
 40
0.139700
  0
CIRCLE
  8
PIN_TOP
 10
82.450100
 20
101.500100
 40
0.139700
  0
CIRCLE
  8
PIN_TOP
 10
83.100100
 20
101.500100
 40
0.139700
  0
CIRCLE
  8
PIN_TOP
 10
83.750100
 20
101.500100
 40
0.139700
  0
CIRCLE
  8
PIN_TOP
 10
85.050100
 20
101.500100
 40
0.139700
  0
CIRCLE
  8
PIN_TOP
 10
85.700100
 20
101.500100
 40
0.139700
  0
CIRCLE
  8
PIN_TOP
 10
86.350100
 20
101.500100
 40
0.139700
  0
CIRCLE
  8
PIN_TOP
 10
87.000100
 20
101.500100
 40
0.139700
  0
CIRCLE
  8
PIN_TOP
 10
87.650100
 20
101.500100
 40
0.139700
  0
CIRCLE
  8
PIN_TOP
 10
88.300100
 20
101.500100
 40
0.139700
  0
CIRCLE
  8
PIN_TOP
 10
88.950100
 20
101.500100
 40
0.139700
  0
CIRCLE
  8
PIN_TOP
 10
89.600100
 20
101.500100
 40
0.139700
  0
CIRCLE
  8
PIN_TOP
 10
90.250100
 20
101.500100
 40
0.139700
  0
CIRCLE
  8
PIN_TOP
 10
90.900100
 20
101.500100
 40
0.139700
  0
CIRCLE
  8
PIN_TOP
 10
91.550100
 20
101.500100
 40
0.139700
  0
CIRCLE
  8
PIN_TOP
 10
92.850100
 20
101.500100
 40
0.139700
  0
CIRCLE
  8
PIN_TOP
 10
93.500100
 20
101.500100
 40
0.139700
  0
CIRCLE
  8
PIN_TOP
 10
94.150100
 20
101.500100
 40
0.139700
  0
CIRCLE
  8
PIN_TOP
 10
94.800100
 20
101.500100
 40
0.139700
  0
CIRCLE
  8
PIN_TOP
 10
81.800100
 20
100.850100
 40
0.139700
  0
CIRCLE
  8
PIN_TOP
 10
82.450100
 20
100.850100
 40
0.139700
  0
CIRCLE
  8
PIN_TOP
 10
83.100100
 20
100.850100
 40
0.139700
  0
CIRCLE
  8
PIN_TOP
 10
83.750100
 20
100.850100
 40
0.139700
  0
CIRCLE
  8
PIN_TOP
 10
85.050100
 20
100.850100
 40
0.139700
  0
CIRCLE
  8
PIN_TOP
 10
85.700100
 20
100.850100
 40
0.139700
  0
CIRCLE
  8
PIN_TOP
 10
86.350100
 20
100.850100
 40
0.139700
  0
CIRCLE
  8
PIN_TOP
 10
87.000100
 20
100.850100
 40
0.139700
  0
CIRCLE
  8
PIN_TOP
 10
87.650100
 20
100.850100
 40
0.139700
  0
CIRCLE
  8
PIN_TOP
 10
88.300100
 20
100.850100
 40
0.139700
  0
CIRCLE
  8
PIN_TOP
 10
88.950100
 20
100.850100
 40
0.139700
  0
CIRCLE
  8
PIN_TOP
 10
89.600100
 20
100.850100
 40
0.139700
  0
CIRCLE
  8
PIN_TOP
 10
90.250100
 20
100.850100
 40
0.139700
  0
CIRCLE
  8
PIN_TOP
 10
90.900100
 20
100.850100
 40
0.139700
  0
CIRCLE
  8
PIN_TOP
 10
91.550100
 20
100.850100
 40
0.139700
  0
CIRCLE
  8
PIN_TOP
 10
92.850100
 20
100.850100
 40
0.139700
  0
CIRCLE
  8
PIN_TOP
 10
93.500100
 20
100.850100
 40
0.139700
  0
CIRCLE
  8
PIN_TOP
 10
94.150100
 20
100.850100
 40
0.139700
  0
CIRCLE
  8
PIN_TOP
 10
94.800100
 20
100.850100
 40
0.139700
  0
CIRCLE
  8
PIN_TOP
 10
81.800100
 20
100.200100
 40
0.139700
  0
CIRCLE
  8
PIN_TOP
 10
82.450100
 20
100.200100
 40
0.139700
  0
CIRCLE
  8
PIN_TOP
 10
83.100100
 20
100.200100
 40
0.139700
  0
CIRCLE
  8
PIN_TOP
 10
83.750100
 20
100.200100
 40
0.139700
  0
CIRCLE
  8
PIN_TOP
 10
85.050100
 20
100.200100
 40
0.139700
  0
CIRCLE
  8
PIN_TOP
 10
85.700100
 20
100.200100
 40
0.139700
  0
CIRCLE
  8
PIN_TOP
 10
86.350100
 20
100.200100
 40
0.139700
  0
CIRCLE
  8
PIN_TOP
 10
87.000100
 20
100.200100
 40
0.139700
  0
CIRCLE
  8
PIN_TOP
 10
87.650100
 20
100.200100
 40
0.139700
  0
CIRCLE
  8
PIN_TOP
 10
88.300100
 20
100.200100
 40
0.139700
  0
CIRCLE
  8
PIN_TOP
 10
88.950100
 20
100.200100
 40
0.139700
  0
CIRCLE
  8
PIN_TOP
 10
89.600100
 20
100.200100
 40
0.139700
  0
CIRCLE
  8
PIN_TOP
 10
90.250100
 20
100.200100
 40
0.139700
  0
CIRCLE
  8
PIN_TOP
 10
90.900100
 20
100.200100
 40
0.139700
  0
CIRCLE
  8
PIN_TOP
 10
91.550100
 20
100.200100
 40
0.139700
  0
CIRCLE
  8
PIN_TOP
 10
92.850100
 20
100.200100
 40
0.139700
  0
CIRCLE
  8
PIN_TOP
 10
93.500100
 20
100.200100
 40
0.139700
  0
CIRCLE
  8
PIN_TOP
 10
94.150100
 20
100.200100
 40
0.139700
  0
CIRCLE
  8
PIN_TOP
 10
94.800100
 20
100.200100
 40
0.139700
  0
CIRCLE
  8
PIN_TOP
 10
81.800100
 20
99.550100
 40
0.139700
  0
CIRCLE
  8
PIN_TOP
 10
82.450100
 20
99.550100
 40
0.139700
  0
CIRCLE
  8
PIN_TOP
 10
83.100100
 20
99.550100
 40
0.139700
  0
CIRCLE
  8
PIN_TOP
 10
83.750100
 20
99.550100
 40
0.139700
  0
CIRCLE
  8
PIN_TOP
 10
85.050100
 20
99.550100
 40
0.139700
  0
CIRCLE
  8
PIN_TOP
 10
85.700100
 20
99.550100
 40
0.139700
  0
CIRCLE
  8
PIN_TOP
 10
86.350100
 20
99.550100
 40
0.139700
  0
CIRCLE
  8
PIN_TOP
 10
87.000100
 20
99.550100
 40
0.139700
  0
CIRCLE
  8
PIN_TOP
 10
87.650100
 20
99.550100
 40
0.139700
  0
CIRCLE
  8
PIN_TOP
 10
88.300100
 20
99.550100
 40
0.139700
  0
CIRCLE
  8
PIN_TOP
 10
88.950100
 20
99.550100
 40
0.139700
  0
CIRCLE
  8
PIN_TOP
 10
89.600100
 20
99.550100
 40
0.139700
  0
CIRCLE
  8
PIN_TOP
 10
90.250100
 20
99.550100
 40
0.139700
  0
CIRCLE
  8
PIN_TOP
 10
90.900100
 20
99.550100
 40
0.139700
  0
CIRCLE
  8
PIN_TOP
 10
91.550100
 20
99.550100
 40
0.139700
  0
CIRCLE
  8
PIN_TOP
 10
92.850100
 20
99.550100
 40
0.139700
  0
CIRCLE
  8
PIN_TOP
 10
93.500100
 20
99.550100
 40
0.139700
  0
CIRCLE
  8
PIN_TOP
 10
94.150100
 20
99.550100
 40
0.139700
  0
CIRCLE
  8
PIN_TOP
 10
94.800100
 20
99.550100
 40
0.139700
  0
CIRCLE
  8
PIN_TOP
 10
81.800100
 20
98.900100
 40
0.139700
  0
CIRCLE
  8
PIN_TOP
 10
82.450100
 20
98.900100
 40
0.139700
  0
CIRCLE
  8
PIN_TOP
 10
83.100100
 20
98.900100
 40
0.139700
  0
CIRCLE
  8
PIN_TOP
 10
83.750100
 20
98.900100
 40
0.139700
  0
CIRCLE
  8
PIN_TOP
 10
92.850100
 20
98.900100
 40
0.139700
  0
CIRCLE
  8
PIN_TOP
 10
93.500100
 20
98.900100
 40
0.139700
  0
CIRCLE
  8
PIN_TOP
 10
94.150100
 20
98.900100
 40
0.139700
  0
CIRCLE
  8
PIN_TOP
 10
94.800100
 20
98.900100
 40
0.139700
  0
CIRCLE
  8
PIN_TOP
 10
81.800100
 20
98.250100
 40
0.139700
  0
CIRCLE
  8
PIN_TOP
 10
82.450100
 20
98.250100
 40
0.139700
  0
CIRCLE
  8
PIN_TOP
 10
83.100100
 20
98.250100
 40
0.139700
  0
CIRCLE
  8
PIN_TOP
 10
83.750100
 20
98.250100
 40
0.139700
  0
CIRCLE
  8
PIN_TOP
 10
84.400100
 20
98.250100
 40
0.139700
  0
CIRCLE
  8
PIN_TOP
 10
85.050100
 20
98.250100
 40
0.139700
  0
CIRCLE
  8
PIN_TOP
 10
85.700100
 20
98.250100
 40
0.139700
  0
CIRCLE
  8
PIN_TOP
 10
86.350100
 20
98.250100
 40
0.139700
  0
CIRCLE
  8
PIN_TOP
 10
87.000100
 20
98.250100
 40
0.139700
  0
CIRCLE
  8
PIN_TOP
 10
87.650100
 20
98.250100
 40
0.139700
  0
CIRCLE
  8
PIN_TOP
 10
88.300100
 20
98.250100
 40
0.139700
  0
CIRCLE
  8
PIN_TOP
 10
88.950100
 20
98.250100
 40
0.139700
  0
CIRCLE
  8
PIN_TOP
 10
89.600100
 20
98.250100
 40
0.139700
  0
CIRCLE
  8
PIN_TOP
 10
90.250100
 20
98.250100
 40
0.139700
  0
CIRCLE
  8
PIN_TOP
 10
90.900100
 20
98.250100
 40
0.139700
  0
CIRCLE
  8
PIN_TOP
 10
91.550100
 20
98.250100
 40
0.139700
  0
CIRCLE
  8
PIN_TOP
 10
92.200100
 20
98.250100
 40
0.139700
  0
CIRCLE
  8
PIN_TOP
 10
92.850100
 20
98.250100
 40
0.139700
  0
CIRCLE
  8
PIN_TOP
 10
93.500100
 20
98.250100
 40
0.139700
  0
CIRCLE
  8
PIN_TOP
 10
94.150100
 20
98.250100
 40
0.139700
  0
CIRCLE
  8
PIN_TOP
 10
94.800100
 20
98.250100
 40
0.139700
  0
CIRCLE
  8
PIN_TOP
 10
81.800100
 20
97.600100
 40
0.139700
  0
CIRCLE
  8
PIN_TOP
 10
82.450100
 20
97.600100
 40
0.139700
  0
CIRCLE
  8
PIN_TOP
 10
83.100100
 20
97.600100
 40
0.139700
  0
CIRCLE
  8
PIN_TOP
 10
83.750100
 20
97.600100
 40
0.139700
  0
CIRCLE
  8
PIN_TOP
 10
84.400100
 20
97.600100
 40
0.139700
  0
CIRCLE
  8
PIN_TOP
 10
85.050100
 20
97.600100
 40
0.139700
  0
CIRCLE
  8
PIN_TOP
 10
85.700100
 20
97.600100
 40
0.139700
  0
CIRCLE
  8
PIN_TOP
 10
86.350100
 20
97.600100
 40
0.139700
  0
CIRCLE
  8
PIN_TOP
 10
87.000100
 20
97.600100
 40
0.139700
  0
CIRCLE
  8
PIN_TOP
 10
87.650100
 20
97.600100
 40
0.139700
  0
CIRCLE
  8
PIN_TOP
 10
88.300100
 20
97.600100
 40
0.139700
  0
CIRCLE
  8
PIN_TOP
 10
88.950100
 20
97.600100
 40
0.139700
  0
CIRCLE
  8
PIN_TOP
 10
89.600100
 20
97.600100
 40
0.139700
  0
CIRCLE
  8
PIN_TOP
 10
90.250100
 20
97.600100
 40
0.139700
  0
CIRCLE
  8
PIN_TOP
 10
90.900100
 20
97.600100
 40
0.139700
  0
CIRCLE
  8
PIN_TOP
 10
91.550100
 20
97.600100
 40
0.139700
  0
CIRCLE
  8
PIN_TOP
 10
92.200100
 20
97.600100
 40
0.139700
  0
CIRCLE
  8
PIN_TOP
 10
92.850100
 20
97.600100
 40
0.139700
  0
CIRCLE
  8
PIN_TOP
 10
93.500100
 20
97.600100
 40
0.139700
  0
CIRCLE
  8
PIN_TOP
 10
94.150100
 20
97.600100
 40
0.139700
  0
CIRCLE
  8
PIN_TOP
 10
94.800100
 20
97.600100
 40
0.139700
  0
CIRCLE
  8
PIN_TOP
 10
81.800100
 20
96.950100
 40
0.139700
  0
CIRCLE
  8
PIN_TOP
 10
82.450100
 20
96.950100
 40
0.139700
  0
CIRCLE
  8
PIN_TOP
 10
83.100100
 20
96.950100
 40
0.139700
  0
CIRCLE
  8
PIN_TOP
 10
83.750100
 20
96.950100
 40
0.139700
  0
CIRCLE
  8
PIN_TOP
 10
84.400100
 20
96.950100
 40
0.139700
  0
CIRCLE
  8
PIN_TOP
 10
85.050100
 20
96.950100
 40
0.139700
  0
CIRCLE
  8
PIN_TOP
 10
85.700100
 20
96.950100
 40
0.139700
  0
CIRCLE
  8
PIN_TOP
 10
86.350100
 20
96.950100
 40
0.139700
  0
CIRCLE
  8
PIN_TOP
 10
87.000100
 20
96.950100
 40
0.139700
  0
CIRCLE
  8
PIN_TOP
 10
87.650100
 20
96.950100
 40
0.139700
  0
CIRCLE
  8
PIN_TOP
 10
88.300100
 20
96.950100
 40
0.139700
  0
CIRCLE
  8
PIN_TOP
 10
88.950100
 20
96.950100
 40
0.139700
  0
CIRCLE
  8
PIN_TOP
 10
89.600100
 20
96.950100
 40
0.139700
  0
CIRCLE
  8
PIN_TOP
 10
90.250100
 20
96.950100
 40
0.139700
  0
CIRCLE
  8
PIN_TOP
 10
90.900100
 20
96.950100
 40
0.139700
  0
CIRCLE
  8
PIN_TOP
 10
91.550100
 20
96.950100
 40
0.139700
  0
CIRCLE
  8
PIN_TOP
 10
92.200100
 20
96.950100
 40
0.139700
  0
CIRCLE
  8
PIN_TOP
 10
92.850100
 20
96.950100
 40
0.139700
  0
CIRCLE
  8
PIN_TOP
 10
93.500100
 20
96.950100
 40
0.139700
  0
CIRCLE
  8
PIN_TOP
 10
94.150100
 20
96.950100
 40
0.139700
  0
CIRCLE
  8
PIN_TOP
 10
94.800100
 20
96.950100
 40
0.139700
  0
CIRCLE
  8
PIN_TOP
 10
82.450100
 20
96.300100
 40
0.139700
  0
CIRCLE
  8
PIN_TOP
 10
83.100100
 20
96.300100
 40
0.139700
  0
CIRCLE
  8
PIN_TOP
 10
83.750100
 20
96.300100
 40
0.139700
  0
CIRCLE
  8
PIN_TOP
 10
84.400100
 20
96.300100
 40
0.139700
  0
CIRCLE
  8
PIN_TOP
 10
85.050100
 20
96.300100
 40
0.139700
  0
CIRCLE
  8
PIN_TOP
 10
85.700100
 20
96.300100
 40
0.139700
  0
CIRCLE
  8
PIN_TOP
 10
86.350100
 20
96.300100
 40
0.139700
  0
CIRCLE
  8
PIN_TOP
 10
87.000100
 20
96.300100
 40
0.139700
  0
CIRCLE
  8
PIN_TOP
 10
87.650100
 20
96.300100
 40
0.139700
  0
CIRCLE
  8
PIN_TOP
 10
88.300100
 20
96.300100
 40
0.139700
  0
CIRCLE
  8
PIN_TOP
 10
88.950100
 20
96.300100
 40
0.139700
  0
CIRCLE
  8
PIN_TOP
 10
89.600100
 20
96.300100
 40
0.139700
  0
CIRCLE
  8
PIN_TOP
 10
90.250100
 20
96.300100
 40
0.139700
  0
CIRCLE
  8
PIN_TOP
 10
90.900100
 20
96.300100
 40
0.139700
  0
CIRCLE
  8
PIN_TOP
 10
91.550100
 20
96.300100
 40
0.139700
  0
CIRCLE
  8
PIN_TOP
 10
92.200100
 20
96.300100
 40
0.139700
  0
CIRCLE
  8
PIN_TOP
 10
92.850100
 20
96.300100
 40
0.139700
  0
CIRCLE
  8
PIN_TOP
 10
93.500100
 20
96.300100
 40
0.139700
  0
CIRCLE
  8
PIN_TOP
 10
94.150100
 20
96.300100
 40
0.139700
  0
POLYLINE
  8
PG_SILKSCREEN_TOP
 66
1
 70
1
 40
0.000000
 41
0.000000
 39
0.000000
  0
VERTEX
  8
PG_SILKSCREEN_TOP
 10
81.300100
 20
95.800100
 40
0.000000
 41
0.000000
 42
0.000000
  0
VERTEX
  8
PG_SILKSCREEN_TOP
 10
95.300100
 20
95.800100
 40
0.000000
 41
0.000000
 42
0.000000
  0
VERTEX
  8
PG_SILKSCREEN_TOP
 10
95.300100
 20
109.800100
 40
0.000000
 41
0.000000
 42
0.000000
  0
VERTEX
  8
PG_SILKSCREEN_TOP
 10
81.300100
 20
109.800100
 40
0.000000
 41
0.000000
 42
0.000000
  0
SEQEND
  0
POLYLINE
  8
PG_SILKSCREEN_TOP
 66
1
 70
1
 40
0.000000
 41
0.000000
 39
0.000000
  0
VERTEX
  8
PG_SILKSCREEN_TOP
 10
81.300100
 20
109.800100
 40
0.000000
 41
0.000000
 42
0.000000
  0
VERTEX
  8
PG_SILKSCREEN_TOP
 10
81.300100
 20
110.800100
 40
0.000000
 41
0.000000
 42
0.000000
  0
VERTEX
  8
PG_SILKSCREEN_TOP
 10
80.300100
 20
109.800100
 40
0.000000
 41
0.000000
 42
0.000000
  0
SEQEND
  0
CIRCLE
  8
PIN_TOP
 10
105.119000
 20
108.999900
 40
0.200000
  0
CIRCLE
  8
PIN_TOP
 10
105.919100
 20
108.999900
 40
0.200000
  0
CIRCLE
  8
PIN_TOP
 10
109.118900
 20
108.999900
 40
0.200000
  0
CIRCLE
  8
PIN_TOP
 10
109.919000
 20
108.999900
 40
0.200000
  0
CIRCLE
  8
PIN_TOP
 10
110.718900
 20
108.999900
 40
0.200000
  0
CIRCLE
  8
PIN_TOP
 10
105.119000
 20
108.200100
 40
0.200000
  0
CIRCLE
  8
PIN_TOP
 10
105.919100
 20
108.200100
 40
0.200000
  0
CIRCLE
  8
PIN_TOP
 10
104.319100
 20
108.200100
 40
0.200000
  0
CIRCLE
  8
PIN_TOP
 10
109.118900
 20
108.200100
 40
0.200000
  0
CIRCLE
  8
PIN_TOP
 10
109.919000
 20
108.200100
 40
0.200000
  0
CIRCLE
  8
PIN_TOP
 10
105.119000
 20
107.400000
 40
0.200000
  0
CIRCLE
  8
PIN_TOP
 10
105.919100
 20
107.400000
 40
0.200000
  0
CIRCLE
  8
PIN_TOP
 10
109.118900
 20
107.400000
 40
0.200000
  0
CIRCLE
  8
PIN_TOP
 10
109.919000
 20
107.400000
 40
0.200000
  0
CIRCLE
  8
PIN_TOP
 10
110.718900
 20
107.400000
 40
0.200000
  0
CIRCLE
  8
PIN_TOP
 10
105.119000
 20
106.599900
 40
0.200000
  0
CIRCLE
  8
PIN_TOP
 10
105.919100
 20
106.599900
 40
0.200000
  0
CIRCLE
  8
PIN_TOP
 10
104.319100
 20
106.599900
 40
0.200000
  0
CIRCLE
  8
PIN_TOP
 10
109.118900
 20
106.599900
 40
0.200000
  0
CIRCLE
  8
PIN_TOP
 10
109.919000
 20
106.599900
 40
0.200000
  0
CIRCLE
  8
PIN_TOP
 10
104.319100
 20
104.200100
 40
0.200000
  0
CIRCLE
  8
PIN_TOP
 10
104.319100
 20
102.599900
 40
0.200000
  0
CIRCLE
  8
PIN_TOP
 10
110.718900
 20
103.400000
 40
0.200000
  0
CIRCLE
  8
PIN_TOP
 10
110.718900
 20
101.800100
 40
0.200000
  0
CIRCLE
  8
PIN_TOP
 10
110.718900
 20
105.800000
 40
0.200000
  0
CIRCLE
  8
PIN_TOP
 10
110.718900
 20
104.200100
 40
0.200000
  0
CIRCLE
  8
PIN_TOP
 10
104.319100
 20
104.999900
 40
0.200000
  0
CIRCLE
  8
PIN_TOP
 10
104.319100
 20
103.400000
 40
0.200000
  0
CIRCLE
  8
PIN_TOP
 10
105.919100
 20
105.800000
 40
0.200000
  0
CIRCLE
  8
PIN_TOP
 10
105.119000
 20
105.800000
 40
0.200000
  0
CIRCLE
  8
PIN_TOP
 10
109.919000
 20
105.800000
 40
0.200000
  0
CIRCLE
  8
PIN_TOP
 10
109.118900
 20
105.800000
 40
0.200000
  0
CIRCLE
  8
PIN_TOP
 10
105.119000
 20
104.999900
 40
0.200000
  0
CIRCLE
  8
PIN_TOP
 10
105.919100
 20
104.999900
 40
0.200000
  0
CIRCLE
  8
PIN_TOP
 10
109.118900
 20
104.999900
 40
0.200000
  0
CIRCLE
  8
PIN_TOP
 10
109.919000
 20
104.999900
 40
0.200000
  0
CIRCLE
  8
PIN_TOP
 10
105.119000
 20
104.200100
 40
0.200000
  0
CIRCLE
  8
PIN_TOP
 10
105.919100
 20
104.200100
 40
0.200000
  0
CIRCLE
  8
PIN_TOP
 10
109.118900
 20
104.200100
 40
0.200000
  0
CIRCLE
  8
PIN_TOP
 10
109.919000
 20
104.200100
 40
0.200000
  0
CIRCLE
  8
PIN_TOP
 10
105.119000
 20
103.400000
 40
0.200000
  0
CIRCLE
  8
PIN_TOP
 10
105.919100
 20
103.400000
 40
0.200000
  0
CIRCLE
  8
PIN_TOP
 10
109.118900
 20
103.400000
 40
0.200000
  0
CIRCLE
  8
PIN_TOP
 10
109.919000
 20
103.400000
 40
0.200000
  0
CIRCLE
  8
PIN_TOP
 10
105.119000
 20
102.599900
 40
0.200000
  0
CIRCLE
  8
PIN_TOP
 10
105.919100
 20
102.599900
 40
0.200000
  0
CIRCLE
  8
PIN_TOP
 10
109.118900
 20
102.599900
 40
0.200000
  0
CIRCLE
  8
PIN_TOP
 10
109.919000
 20
102.599900
 40
0.200000
  0
CIRCLE
  8
PIN_TOP
 10
104.319100
 20
101.800100
 40
0.200000
  0
CIRCLE
  8
PIN_TOP
 10
105.119000
 20
101.800100
 40
0.200000
  0
CIRCLE
  8
PIN_TOP
 10
105.919100
 20
101.800100
 40
0.200000
  0
CIRCLE
  8
PIN_TOP
 10
109.118900
 20
101.800100
 40
0.200000
  0
CIRCLE
  8
PIN_TOP
 10
109.919000
 20
101.800100
 40
0.200000
  0
CIRCLE
  8
PIN_TOP
 10
110.718900
 20
102.599900
 40
0.200000
  0
CIRCLE
  8
PIN_TOP
 10
104.319100
 20
101.000000
 40
0.200000
  0
CIRCLE
  8
PIN_TOP
 10
105.119000
 20
101.000000
 40
0.200000
  0
CIRCLE
  8
PIN_TOP
 10
105.919100
 20
101.000000
 40
0.200000
  0
CIRCLE
  8
PIN_TOP
 10
109.118900
 20
101.000000
 40
0.200000
  0
CIRCLE
  8
PIN_TOP
 10
109.919000
 20
101.000000
 40
0.200000
  0
CIRCLE
  8
PIN_TOP
 10
110.718900
 20
101.000000
 40
0.200000
  0
CIRCLE
  8
PIN_TOP
 10
104.319100
 20
100.200100
 40
0.200000
  0
CIRCLE
  8
PIN_TOP
 10
105.119000
 20
100.200100
 40
0.200000
  0
CIRCLE
  8
PIN_TOP
 10
105.919100
 20
100.200100
 40
0.200000
  0
CIRCLE
  8
PIN_TOP
 10
109.118900
 20
100.200100
 40
0.200000
  0
CIRCLE
  8
PIN_TOP
 10
109.919000
 20
100.200100
 40
0.200000
  0
CIRCLE
  8
PIN_TOP
 10
110.718900
 20
100.200100
 40
0.200000
  0
CIRCLE
  8
PIN_TOP
 10
104.319100
 20
99.400000
 40
0.200000
  0
CIRCLE
  8
PIN_TOP
 10
105.119000
 20
99.400000
 40
0.200000
  0
CIRCLE
  8
PIN_TOP
 10
105.919100
 20
99.400000
 40
0.200000
  0
CIRCLE
  8
PIN_TOP
 10
109.118900
 20
99.400000
 40
0.200000
  0
CIRCLE
  8
PIN_TOP
 10
109.919000
 20
99.400000
 40
0.200000
  0
CIRCLE
  8
PIN_TOP
 10
110.718900
 20
99.400000
 40
0.200000
  0
CIRCLE
  8
PIN_TOP
 10
104.319100
 20
98.599900
 40
0.200000
  0
CIRCLE
  8
PIN_TOP
 10
105.119000
 20
98.599900
 40
0.200000
  0
CIRCLE
  8
PIN_TOP
 10
105.919100
 20
98.599900
 40
0.200000
  0
CIRCLE
  8
PIN_TOP
 10
109.118900
 20
98.599900
 40
0.200000
  0
CIRCLE
  8
PIN_TOP
 10
109.919000
 20
98.599900
 40
0.200000
  0
CIRCLE
  8
PIN_TOP
 10
110.718900
 20
98.599900
 40
0.200000
  0
CIRCLE
  8
PIN_TOP
 10
104.319100
 20
97.800100
 40
0.200000
  0
CIRCLE
  8
PIN_TOP
 10
105.119000
 20
97.800100
 40
0.200000
  0
CIRCLE
  8
PIN_TOP
 10
105.919100
 20
97.800100
 40
0.200000
  0
CIRCLE
  8
PIN_TOP
 10
109.118900
 20
97.800100
 40
0.200000
  0
CIRCLE
  8
PIN_TOP
 10
109.919000
 20
97.800100
 40
0.200000
  0
CIRCLE
  8
PIN_TOP
 10
110.718900
 20
97.800100
 40
0.200000
  0
POLYLINE
  8
PG_SILKSCREEN_TOP
 66
1
 70
1
 40
0.000000
 41
0.000000
 39
0.000000
  0
VERTEX
  8
PG_SILKSCREEN_TOP
 10
103.519000
 20
96.899900
 40
0.152400
 41
0.152400
 42
0.000000
  0
VERTEX
  8
PG_SILKSCREEN_TOP
 10
111.518900
 20
96.899900
 40
0.152400
 41
0.152400
 42
0.000000
  0
VERTEX
  8
PG_SILKSCREEN_TOP
 10
111.518900
 20
109.900100
 40
0.152400
 41
0.152400
 42
0.000000
  0
VERTEX
  8
PG_SILKSCREEN_TOP
 10
103.519000
 20
109.900100
 40
0.152400
 41
0.152400
 42
0.000000
  0
SEQEND
  0
POLYLINE
  8
PG_SILKSCREEN_TOP
 66
1
 70
1
 40
0.000000
 41
0.000000
 39
0.000000
  0
VERTEX
  8
PG_SILKSCREEN_TOP
 10
111.514900
 20
96.936000
 40
0.000000
 41
0.000000
 42
0.000000
  0
VERTEX
  8
PG_SILKSCREEN_TOP
 10
112.514900
 20
96.936000
 40
0.000000
 41
0.000000
 42
0.000000
  0
VERTEX
  8
PG_SILKSCREEN_TOP
 10
111.514900
 20
95.936000
 40
0.000000
 41
0.000000
 42
0.000000
  0
SEQEND
  0
POLYLINE
  8
PIN_TOP
 66
1
 70
1
 40
0.000000
 41
0.000000
 39
0.000000
  0
VERTEX
  8
PIN_TOP
 10
132.283900
 20
88.131400
 40
0.000000
 41
0.000000
 42
0.000000
  0
VERTEX
  8
PIN_TOP
 10
130.074100
 20
88.131400
 40
0.000000
 41
0.000000
 42
0.000000
  0
VERTEX
  8
PIN_TOP
 10
130.074100
 20
89.350600
 40
0.000000
 41
0.000000
 42
0.000000
  0
VERTEX
  8
PIN_TOP
 10
132.283900
 20
89.350600
 40
0.000000
 41
0.000000
 42
0.000000
  0
SEQEND
  0
POLYLINE
  8
PIN_TOP
 66
1
 70
1
 40
0.000000
 41
0.000000
 39
0.000000
  0
VERTEX
  8
PIN_TOP
 10
132.283900
 20
92.531400
 40
0.000000
 41
0.000000
 42
0.000000
  0
VERTEX
  8
PIN_TOP
 10
130.074100
 20
92.531400
 40
0.000000
 41
0.000000
 42
0.000000
  0
VERTEX
  8
PIN_TOP
 10
130.074100
 20
93.750600
 40
0.000000
 41
0.000000
 42
0.000000
  0
VERTEX
  8
PIN_TOP
 10
132.283900
 20
93.750600
 40
0.000000
 41
0.000000
 42
0.000000
  0
SEQEND
  0
CIRCLE
  8
PIN_TOP
 10
130.279000
 20
90.941000
 40
0.305050
  0
CIRCLE
  8
PIN_IN1-LAYER3
 10
130.279000
 20
90.941000
 40
0.305050
  0
CIRCLE
  8
PIN_IN2-LAYER4
 10
130.279000
 20
90.941000
 40
0.305050
  0
INSERT
  8
MANUFACTURING_NCDRILL_FIGURE
  2
FIGURE_CIRCLE
 10
130.279000
 20
90.941000
 41
0.449900
 42
0.599900
 50
0.000000
  0
CIRCLE
  8
PIN_TOP
 10
132.079000
 20
90.941000
 40
0.305050
  0
CIRCLE
  8
PIN_IN1-LAYER3
 10
132.079000
 20
90.941000
 40
0.305050
  0
CIRCLE
  8
PIN_IN2-LAYER4
 10
132.079000
 20
90.941000
 40
0.305050
  0
INSERT
  8
MANUFACTURING_NCDRILL_FIGURE
  2
FIGURE_CIRCLE
 10
132.079000
 20
90.941000
 41
0.449900
 42
0.599900
 50
0.000000
  0
POLYLINE
  8
PG_SILKSCREEN_TOP
 66
1
 70
0
 40
0.000000
 41
0.000000
 39
0.000000
  0
VERTEX
  8
PG_SILKSCREEN_TOP
 10
129.839000
 20
92.891000
 40
0.200000
 41
0.200000
 42
0.000000
  0
VERTEX
  8
PG_SILKSCREEN_TOP
 10
129.639000
 20
92.891000
 40
0.200000
 41
0.200000
 42
0.000000
  0
VERTEX
  8
PG_SILKSCREEN_TOP
 10
129.639000
 20
88.991000
 40
0.200000
 41
0.200000
 42
0.000000
  0
VERTEX
  8
PG_SILKSCREEN_TOP
 10
129.839000
 20
88.991000
 40
0.200000
 41
0.200000
 42
0.000000
  0
SEQEND
  0
POLYLINE
  8
PG_SILKSCREEN_TOP
 66
1
 70
0
 40
0.000000
 41
0.000000
 39
0.000000
  0
VERTEX
  8
PG_SILKSCREEN_TOP
 10
132.519000
 20
88.991000
 40
0.200000
 41
0.200000
 42
0.000000
  0
VERTEX
  8
PG_SILKSCREEN_TOP
 10
132.719000
 20
88.991000
 40
0.200000
 41
0.200000
 42
0.000000
  0
VERTEX
  8
PG_SILKSCREEN_TOP
 10
132.719000
 20
92.891000
 40
0.200000
 41
0.200000
 42
0.000000
  0
VERTEX
  8
PG_SILKSCREEN_TOP
 10
132.519000
 20
92.891000
 40
0.200000
 41
0.200000
 42
0.000000
  0
SEQEND
  0
POLYLINE
  8
PG_SILKSCREEN_TOP
 66
1
 70
0
 40
0.000000
 41
0.000000
 39
0.000000
  0
VERTEX
  8
PG_SILKSCREEN_TOP
 10
131.179000
 20
89.441000
 40
0.200000
 41
0.200000
 42
0.000000
  0
VERTEX
  8
PG_SILKSCREEN_TOP
 10
131.179000
 20
89.941000
 40
0.200000
 41
0.200000
 42
0.000000
  0
VERTEX
  8
PG_SILKSCREEN_TOP
 10
130.179000
 20
90.941000
 40
0.200000
 41
0.200000
 42
0.000000
  0
VERTEX
  8
PG_SILKSCREEN_TOP
 10
130.179000
 20
91.441000
 40
0.200000
 41
0.200000
 42
0.000000
  0
SEQEND
  0
POLYLINE
  8
PG_SILKSCREEN_TOP
 66
1
 70
0
 40
0.000000
 41
0.000000
 39
0.000000
  0
VERTEX
  8
PG_SILKSCREEN_TOP
 10
131.179000
 20
90.941000
 40
0.200000
 41
0.200000
 42
0.000000
  0
VERTEX
  8
PG_SILKSCREEN_TOP
 10
131.179000
 20
92.441000
 40
0.200000
 41
0.200000
 42
0.000000
  0
SEQEND
  0
CIRCLE
  8
PIN_TOP
 10
114.130000
 20
115.270000
 40
0.762000
  0
CIRCLE
  8
PIN_IN1-LAYER3
 10
114.130000
 20
115.270000
 40
0.762000
  0
CIRCLE
  8
PIN_IN2-LAYER4
 10
114.130000
 20
115.270000
 40
0.762000
  0
INSERT
  8
MANUFACTURING_NCDRILL_FIGURE
  2
FIGURE_CIRCLE
 10
114.130000
 20
115.270000
 41
0.889000
 42
0.889000
 50
0.000000
  0
CIRCLE
  8
PIN_TOP
 10
111.590000
 20
115.270000
 40
0.762000
  0
CIRCLE
  8
PIN_IN1-LAYER3
 10
111.590000
 20
115.270000
 40
0.762000
  0
CIRCLE
  8
PIN_IN2-LAYER4
 10
111.590000
 20
115.270000
 40
0.762000
  0
INSERT
  8
MANUFACTURING_NCDRILL_FIGURE
  2
FIGURE_CIRCLE
 10
111.590000
 20
115.270000
 41
0.889000
 42
0.889000
 50
0.000000
  0
CIRCLE
  8
PIN_TOP
 10
109.050000
 20
115.270000
 40
0.762000
  0
CIRCLE
  8
PIN_IN1-LAYER3
 10
109.050000
 20
115.270000
 40
0.762000
  0
CIRCLE
  8
PIN_IN2-LAYER4
 10
109.050000
 20
115.270000
 40
0.762000
  0
INSERT
  8
MANUFACTURING_NCDRILL_FIGURE
  2
FIGURE_CIRCLE
 10
109.050000
 20
115.270000
 41
0.889000
 42
0.889000
 50
0.000000
  0
CIRCLE
  8
PIN_TOP
 10
106.510000
 20
115.270000
 40
0.762000
  0
CIRCLE
  8
PIN_IN1-LAYER3
 10
106.510000
 20
115.270000
 40
0.762000
  0
CIRCLE
  8
PIN_IN2-LAYER4
 10
106.510000
 20
115.270000
 40
0.762000
  0
INSERT
  8
MANUFACTURING_NCDRILL_FIGURE
  2
FIGURE_CIRCLE
 10
106.510000
 20
115.270000
 41
0.889000
 42
0.889000
 50
0.000000
  0
CIRCLE
  8
PIN_TOP
 10
103.970000
 20
115.270000
 40
0.762000
  0
CIRCLE
  8
PIN_IN1-LAYER3
 10
103.970000
 20
115.270000
 40
0.762000
  0
CIRCLE
  8
PIN_IN2-LAYER4
 10
103.970000
 20
115.270000
 40
0.762000
  0
INSERT
  8
MANUFACTURING_NCDRILL_FIGURE
  2
FIGURE_CIRCLE
 10
103.970000
 20
115.270000
 41
0.889000
 42
0.889000
 50
0.000000
  0
CIRCLE
  8
PIN_TOP
 10
101.430000
 20
115.270000
 40
0.762000
  0
CIRCLE
  8
PIN_IN1-LAYER3
 10
101.430000
 20
115.270000
 40
0.762000
  0
CIRCLE
  8
PIN_IN2-LAYER4
 10
101.430000
 20
115.270000
 40
0.762000
  0
INSERT
  8
MANUFACTURING_NCDRILL_FIGURE
  2
FIGURE_CIRCLE
 10
101.430000
 20
115.270000
 41
0.889000
 42
0.889000
 50
0.000000
  0
CIRCLE
  8
PIN_TOP
 10
98.890000
 20
115.270000
 40
0.762000
  0
CIRCLE
  8
PIN_IN1-LAYER3
 10
98.890000
 20
115.270000
 40
0.762000
  0
CIRCLE
  8
PIN_IN2-LAYER4
 10
98.890000
 20
115.270000
 40
0.762000
  0
INSERT
  8
MANUFACTURING_NCDRILL_FIGURE
  2
FIGURE_CIRCLE
 10
98.890000
 20
115.270000
 41
0.889000
 42
0.889000
 50
0.000000
  0
CIRCLE
  8
PIN_TOP
 10
96.350000
 20
115.270000
 40
0.762000
  0
CIRCLE
  8
PIN_IN1-LAYER3
 10
96.350000
 20
115.270000
 40
0.762000
  0
CIRCLE
  8
PIN_IN2-LAYER4
 10
96.350000
 20
115.270000
 40
0.762000
  0
INSERT
  8
MANUFACTURING_NCDRILL_FIGURE
  2
FIGURE_CIRCLE
 10
96.350000
 20
115.270000
 41
0.889000
 42
0.889000
 50
0.000000
  0
CIRCLE
  8
PIN_TOP
 10
93.810000
 20
115.270000
 40
0.762000
  0
CIRCLE
  8
PIN_IN1-LAYER3
 10
93.810000
 20
115.270000
 40
0.762000
  0
CIRCLE
  8
PIN_IN2-LAYER4
 10
93.810000
 20
115.270000
 40
0.762000
  0
INSERT
  8
MANUFACTURING_NCDRILL_FIGURE
  2
FIGURE_CIRCLE
 10
93.810000
 20
115.270000
 41
0.889000
 42
0.889000
 50
0.000000
  0
CIRCLE
  8
PIN_TOP
 10
91.270000
 20
115.270000
 40
0.762000
  0
CIRCLE
  8
PIN_IN1-LAYER3
 10
91.270000
 20
115.270000
 40
0.762000
  0
CIRCLE
  8
PIN_IN2-LAYER4
 10
91.270000
 20
115.270000
 40
0.762000
  0
INSERT
  8
MANUFACTURING_NCDRILL_FIGURE
  2
FIGURE_CIRCLE
 10
91.270000
 20
115.270000
 41
0.889000
 42
0.889000
 50
0.000000
  0
CIRCLE
  8
PIN_TOP
 10
88.730000
 20
115.270000
 40
0.762000
  0
CIRCLE
  8
PIN_IN1-LAYER3
 10
88.730000
 20
115.270000
 40
0.762000
  0
CIRCLE
  8
PIN_IN2-LAYER4
 10
88.730000
 20
115.270000
 40
0.762000
  0
INSERT
  8
MANUFACTURING_NCDRILL_FIGURE
  2
FIGURE_CIRCLE
 10
88.730000
 20
115.270000
 41
0.889000
 42
0.889000
 50
0.000000
  0
CIRCLE
  8
PIN_TOP
 10
86.190000
 20
115.270000
 40
0.762000
  0
CIRCLE
  8
PIN_IN1-LAYER3
 10
86.190000
 20
115.270000
 40
0.762000
  0
CIRCLE
  8
PIN_IN2-LAYER4
 10
86.190000
 20
115.270000
 40
0.762000
  0
INSERT
  8
MANUFACTURING_NCDRILL_FIGURE
  2
FIGURE_CIRCLE
 10
86.190000
 20
115.270000
 41
0.889000
 42
0.889000
 50
0.000000
  0
CIRCLE
  8
PIN_TOP
 10
83.650000
 20
115.270000
 40
0.762000
  0
CIRCLE
  8
PIN_IN1-LAYER3
 10
83.650000
 20
115.270000
 40
0.762000
  0
CIRCLE
  8
PIN_IN2-LAYER4
 10
83.650000
 20
115.270000
 40
0.762000
  0
INSERT
  8
MANUFACTURING_NCDRILL_FIGURE
  2
FIGURE_CIRCLE
 10
83.650000
 20
115.270000
 41
0.889000
 42
0.889000
 50
0.000000
  0
CIRCLE
  8
PIN_TOP
 10
81.110000
 20
115.270000
 40
0.762000
  0
CIRCLE
  8
PIN_IN1-LAYER3
 10
81.110000
 20
115.270000
 40
0.762000
  0
CIRCLE
  8
PIN_IN2-LAYER4
 10
81.110000
 20
115.270000
 40
0.762000
  0
INSERT
  8
MANUFACTURING_NCDRILL_FIGURE
  2
FIGURE_CIRCLE
 10
81.110000
 20
115.270000
 41
0.889000
 42
0.889000
 50
0.000000
  0
CIRCLE
  8
PIN_TOP
 10
78.570000
 20
115.270000
 40
0.762000
  0
CIRCLE
  8
PIN_IN1-LAYER3
 10
78.570000
 20
115.270000
 40
0.762000
  0
CIRCLE
  8
PIN_IN2-LAYER4
 10
78.570000
 20
115.270000
 40
0.762000
  0
INSERT
  8
MANUFACTURING_NCDRILL_FIGURE
  2
FIGURE_CIRCLE
 10
78.570000
 20
115.270000
 41
0.889000
 42
0.889000
 50
0.000000
  0
CIRCLE
  8
PIN_TOP
 10
76.030000
 20
115.270000
 40
0.762000
  0
CIRCLE
  8
PIN_IN1-LAYER3
 10
76.030000
 20
115.270000
 40
0.762000
  0
CIRCLE
  8
PIN_IN2-LAYER4
 10
76.030000
 20
115.270000
 40
0.762000
  0
INSERT
  8
MANUFACTURING_NCDRILL_FIGURE
  2
FIGURE_CIRCLE
 10
76.030000
 20
115.270000
 41
0.889000
 42
0.889000
 50
0.000000
  0
CIRCLE
  8
PIN_TOP
 10
73.490000
 20
115.270000
 40
0.762000
  0
CIRCLE
  8
PIN_IN1-LAYER3
 10
73.490000
 20
115.270000
 40
0.762000
  0
CIRCLE
  8
PIN_IN2-LAYER4
 10
73.490000
 20
115.270000
 40
0.762000
  0
INSERT
  8
MANUFACTURING_NCDRILL_FIGURE
  2
FIGURE_CIRCLE
 10
73.490000
 20
115.270000
 41
0.889000
 42
0.889000
 50
0.000000
  0
CIRCLE
  8
PIN_TOP
 10
70.950000
 20
115.270000
 40
0.762000
  0
CIRCLE
  8
PIN_IN1-LAYER3
 10
70.950000
 20
115.270000
 40
0.762000
  0
CIRCLE
  8
PIN_IN2-LAYER4
 10
70.950000
 20
115.270000
 40
0.762000
  0
INSERT
  8
MANUFACTURING_NCDRILL_FIGURE
  2
FIGURE_CIRCLE
 10
70.950000
 20
115.270000
 41
0.889000
 42
0.889000
 50
0.000000
  0
CIRCLE
  8
PIN_TOP
 10
68.410000
 20
115.270000
 40
0.762000
  0
CIRCLE
  8
PIN_IN1-LAYER3
 10
68.410000
 20
115.270000
 40
0.762000
  0
CIRCLE
  8
PIN_IN2-LAYER4
 10
68.410000
 20
115.270000
 40
0.762000
  0
INSERT
  8
MANUFACTURING_NCDRILL_FIGURE
  2
FIGURE_CIRCLE
 10
68.410000
 20
115.270000
 41
0.889000
 42
0.889000
 50
0.000000
  0
CIRCLE
  8
PIN_TOP
 10
65.870000
 20
115.270000
 40
0.762000
  0
CIRCLE
  8
PIN_IN1-LAYER3
 10
65.870000
 20
115.270000
 40
0.762000
  0
CIRCLE
  8
PIN_IN2-LAYER4
 10
65.870000
 20
115.270000
 40
0.762000
  0
INSERT
  8
MANUFACTURING_NCDRILL_FIGURE
  2
FIGURE_CIRCLE
 10
65.870000
 20
115.270000
 41
0.889000
 42
0.889000
 50
0.000000
  0
CIRCLE
  8
PIN_TOP
 10
114.130000
 20
112.730000
 40
0.762000
  0
CIRCLE
  8
PIN_IN1-LAYER3
 10
114.130000
 20
112.730000
 40
0.762000
  0
CIRCLE
  8
PIN_IN2-LAYER4
 10
114.130000
 20
112.730000
 40
0.762000
  0
INSERT
  8
MANUFACTURING_NCDRILL_FIGURE
  2
FIGURE_CIRCLE
 10
114.130000
 20
112.730000
 41
0.889000
 42
0.889000
 50
0.000000
  0
CIRCLE
  8
PIN_TOP
 10
111.590000
 20
112.730000
 40
0.762000
  0
CIRCLE
  8
PIN_IN1-LAYER3
 10
111.590000
 20
112.730000
 40
0.762000
  0
CIRCLE
  8
PIN_IN2-LAYER4
 10
111.590000
 20
112.730000
 40
0.762000
  0
INSERT
  8
MANUFACTURING_NCDRILL_FIGURE
  2
FIGURE_CIRCLE
 10
111.590000
 20
112.730000
 41
0.889000
 42
0.889000
 50
0.000000
  0
CIRCLE
  8
PIN_TOP
 10
109.050000
 20
112.730000
 40
0.762000
  0
CIRCLE
  8
PIN_IN1-LAYER3
 10
109.050000
 20
112.730000
 40
0.762000
  0
CIRCLE
  8
PIN_IN2-LAYER4
 10
109.050000
 20
112.730000
 40
0.762000
  0
INSERT
  8
MANUFACTURING_NCDRILL_FIGURE
  2
FIGURE_CIRCLE
 10
109.050000
 20
112.730000
 41
0.889000
 42
0.889000
 50
0.000000
  0
CIRCLE
  8
PIN_TOP
 10
106.510000
 20
112.730000
 40
0.762000
  0
CIRCLE
  8
PIN_IN1-LAYER3
 10
106.510000
 20
112.730000
 40
0.762000
  0
CIRCLE
  8
PIN_IN2-LAYER4
 10
106.510000
 20
112.730000
 40
0.762000
  0
INSERT
  8
MANUFACTURING_NCDRILL_FIGURE
  2
FIGURE_CIRCLE
 10
106.510000
 20
112.730000
 41
0.889000
 42
0.889000
 50
0.000000
  0
CIRCLE
  8
PIN_TOP
 10
103.970000
 20
112.730000
 40
0.762000
  0
CIRCLE
  8
PIN_IN1-LAYER3
 10
103.970000
 20
112.730000
 40
0.762000
  0
CIRCLE
  8
PIN_IN2-LAYER4
 10
103.970000
 20
112.730000
 40
0.762000
  0
INSERT
  8
MANUFACTURING_NCDRILL_FIGURE
  2
FIGURE_CIRCLE
 10
103.970000
 20
112.730000
 41
0.889000
 42
0.889000
 50
0.000000
  0
CIRCLE
  8
PIN_TOP
 10
101.430000
 20
112.730000
 40
0.762000
  0
CIRCLE
  8
PIN_IN1-LAYER3
 10
101.430000
 20
112.730000
 40
0.762000
  0
CIRCLE
  8
PIN_IN2-LAYER4
 10
101.430000
 20
112.730000
 40
0.762000
  0
INSERT
  8
MANUFACTURING_NCDRILL_FIGURE
  2
FIGURE_CIRCLE
 10
101.430000
 20
112.730000
 41
0.889000
 42
0.889000
 50
0.000000
  0
CIRCLE
  8
PIN_TOP
 10
98.890000
 20
112.730000
 40
0.762000
  0
CIRCLE
  8
PIN_IN1-LAYER3
 10
98.890000
 20
112.730000
 40
0.762000
  0
CIRCLE
  8
PIN_IN2-LAYER4
 10
98.890000
 20
112.730000
 40
0.762000
  0
INSERT
  8
MANUFACTURING_NCDRILL_FIGURE
  2
FIGURE_CIRCLE
 10
98.890000
 20
112.730000
 41
0.889000
 42
0.889000
 50
0.000000
  0
CIRCLE
  8
PIN_TOP
 10
96.350000
 20
112.730000
 40
0.762000
  0
CIRCLE
  8
PIN_IN1-LAYER3
 10
96.350000
 20
112.730000
 40
0.762000
  0
CIRCLE
  8
PIN_IN2-LAYER4
 10
96.350000
 20
112.730000
 40
0.762000
  0
INSERT
  8
MANUFACTURING_NCDRILL_FIGURE
  2
FIGURE_CIRCLE
 10
96.350000
 20
112.730000
 41
0.889000
 42
0.889000
 50
0.000000
  0
CIRCLE
  8
PIN_TOP
 10
93.810000
 20
112.730000
 40
0.762000
  0
CIRCLE
  8
PIN_IN1-LAYER3
 10
93.810000
 20
112.730000
 40
0.762000
  0
CIRCLE
  8
PIN_IN2-LAYER4
 10
93.810000
 20
112.730000
 40
0.762000
  0
INSERT
  8
MANUFACTURING_NCDRILL_FIGURE
  2
FIGURE_CIRCLE
 10
93.810000
 20
112.730000
 41
0.889000
 42
0.889000
 50
0.000000
  0
CIRCLE
  8
PIN_TOP
 10
91.270000
 20
112.730000
 40
0.762000
  0
CIRCLE
  8
PIN_IN1-LAYER3
 10
91.270000
 20
112.730000
 40
0.762000
  0
CIRCLE
  8
PIN_IN2-LAYER4
 10
91.270000
 20
112.730000
 40
0.762000
  0
INSERT
  8
MANUFACTURING_NCDRILL_FIGURE
  2
FIGURE_CIRCLE
 10
91.270000
 20
112.730000
 41
0.889000
 42
0.889000
 50
0.000000
  0
CIRCLE
  8
PIN_TOP
 10
88.730000
 20
112.730000
 40
0.762000
  0
CIRCLE
  8
PIN_IN1-LAYER3
 10
88.730000
 20
112.730000
 40
0.762000
  0
CIRCLE
  8
PIN_IN2-LAYER4
 10
88.730000
 20
112.730000
 40
0.762000
  0
INSERT
  8
MANUFACTURING_NCDRILL_FIGURE
  2
FIGURE_CIRCLE
 10
88.730000
 20
112.730000
 41
0.889000
 42
0.889000
 50
0.000000
  0
CIRCLE
  8
PIN_TOP
 10
86.190000
 20
112.730000
 40
0.762000
  0
CIRCLE
  8
PIN_IN1-LAYER3
 10
86.190000
 20
112.730000
 40
0.762000
  0
CIRCLE
  8
PIN_IN2-LAYER4
 10
86.190000
 20
112.730000
 40
0.762000
  0
INSERT
  8
MANUFACTURING_NCDRILL_FIGURE
  2
FIGURE_CIRCLE
 10
86.190000
 20
112.730000
 41
0.889000
 42
0.889000
 50
0.000000
  0
CIRCLE
  8
PIN_TOP
 10
83.650000
 20
112.730000
 40
0.762000
  0
CIRCLE
  8
PIN_IN1-LAYER3
 10
83.650000
 20
112.730000
 40
0.762000
  0
CIRCLE
  8
PIN_IN2-LAYER4
 10
83.650000
 20
112.730000
 40
0.762000
  0
INSERT
  8
MANUFACTURING_NCDRILL_FIGURE
  2
FIGURE_CIRCLE
 10
83.650000
 20
112.730000
 41
0.889000
 42
0.889000
 50
0.000000
  0
CIRCLE
  8
PIN_TOP
 10
81.110000
 20
112.730000
 40
0.762000
  0
CIRCLE
  8
PIN_IN1-LAYER3
 10
81.110000
 20
112.730000
 40
0.762000
  0
CIRCLE
  8
PIN_IN2-LAYER4
 10
81.110000
 20
112.730000
 40
0.762000
  0
INSERT
  8
MANUFACTURING_NCDRILL_FIGURE
  2
FIGURE_CIRCLE
 10
81.110000
 20
112.730000
 41
0.889000
 42
0.889000
 50
0.000000
  0
CIRCLE
  8
PIN_TOP
 10
78.570000
 20
112.730000
 40
0.762000
  0
CIRCLE
  8
PIN_IN1-LAYER3
 10
78.570000
 20
112.730000
 40
0.762000
  0
CIRCLE
  8
PIN_IN2-LAYER4
 10
78.570000
 20
112.730000
 40
0.762000
  0
INSERT
  8
MANUFACTURING_NCDRILL_FIGURE
  2
FIGURE_CIRCLE
 10
78.570000
 20
112.730000
 41
0.889000
 42
0.889000
 50
0.000000
  0
CIRCLE
  8
PIN_TOP
 10
76.030000
 20
112.730000
 40
0.762000
  0
CIRCLE
  8
PIN_IN1-LAYER3
 10
76.030000
 20
112.730000
 40
0.762000
  0
CIRCLE
  8
PIN_IN2-LAYER4
 10
76.030000
 20
112.730000
 40
0.762000
  0
INSERT
  8
MANUFACTURING_NCDRILL_FIGURE
  2
FIGURE_CIRCLE
 10
76.030000
 20
112.730000
 41
0.889000
 42
0.889000
 50
0.000000
  0
CIRCLE
  8
PIN_TOP
 10
73.490000
 20
112.730000
 40
0.762000
  0
CIRCLE
  8
PIN_IN1-LAYER3
 10
73.490000
 20
112.730000
 40
0.762000
  0
CIRCLE
  8
PIN_IN2-LAYER4
 10
73.490000
 20
112.730000
 40
0.762000
  0
INSERT
  8
MANUFACTURING_NCDRILL_FIGURE
  2
FIGURE_CIRCLE
 10
73.490000
 20
112.730000
 41
0.889000
 42
0.889000
 50
0.000000
  0
CIRCLE
  8
PIN_TOP
 10
70.950000
 20
112.730000
 40
0.762000
  0
CIRCLE
  8
PIN_IN1-LAYER3
 10
70.950000
 20
112.730000
 40
0.762000
  0
CIRCLE
  8
PIN_IN2-LAYER4
 10
70.950000
 20
112.730000
 40
0.762000
  0
INSERT
  8
MANUFACTURING_NCDRILL_FIGURE
  2
FIGURE_CIRCLE
 10
70.950000
 20
112.730000
 41
0.889000
 42
0.889000
 50
0.000000
  0
CIRCLE
  8
PIN_TOP
 10
68.410000
 20
112.730000
 40
0.762000
  0
CIRCLE
  8
PIN_IN1-LAYER3
 10
68.410000
 20
112.730000
 40
0.762000
  0
CIRCLE
  8
PIN_IN2-LAYER4
 10
68.410000
 20
112.730000
 40
0.762000
  0
INSERT
  8
MANUFACTURING_NCDRILL_FIGURE
  2
FIGURE_CIRCLE
 10
68.410000
 20
112.730000
 41
0.889000
 42
0.889000
 50
0.000000
  0
CIRCLE
  8
PIN_TOP
 10
65.870000
 20
112.730000
 40
0.762000
  0
CIRCLE
  8
PIN_IN1-LAYER3
 10
65.870000
 20
112.730000
 40
0.762000
  0
CIRCLE
  8
PIN_IN2-LAYER4
 10
65.870000
 20
112.730000
 40
0.762000
  0
INSERT
  8
MANUFACTURING_NCDRILL_FIGURE
  2
FIGURE_CIRCLE
 10
65.870000
 20
112.730000
 41
0.889000
 42
0.889000
 50
0.000000
  0
POLYLINE
  8
PG_SILKSCREEN_TOP
 66
1
 70
0
 40
0.000000
 41
0.000000
 39
0.000000
  0
VERTEX
  8
PG_SILKSCREEN_TOP
 10
67.140000
 20
116.032000
 40
0.203200
 41
0.203200
 42
0.000000
  0
VERTEX
  8
PG_SILKSCREEN_TOP
 10
66.632000
 20
116.540000
 40
0.203200
 41
0.203200
 42
0.000000
  0
VERTEX
  8
PG_SILKSCREEN_TOP
 10
65.108000
 20
116.540000
 40
0.203200
 41
0.203200
 42
0.000000
  0
VERTEX
  8
PG_SILKSCREEN_TOP
 10
64.600000
 20
116.032000
 40
0.203200
 41
0.203200
 42
0.000000
  0
SEQEND
  0
POLYLINE
  8
PG_SILKSCREEN_TOP
 66
1
 70
0
 40
0.000000
 41
0.000000
 39
0.000000
  0
VERTEX
  8
PG_SILKSCREEN_TOP
 10
69.680000
 20
116.032000
 40
0.203200
 41
0.203200
 42
0.000000
  0
VERTEX
  8
PG_SILKSCREEN_TOP
 10
69.172000
 20
116.540000
 40
0.203200
 41
0.203200
 42
0.000000
  0
VERTEX
  8
PG_SILKSCREEN_TOP
 10
67.648000
 20
116.540000
 40
0.203200
 41
0.203200
 42
0.000000
  0
VERTEX
  8
PG_SILKSCREEN_TOP
 10
67.140000
 20
116.032000
 40
0.203200
 41
0.203200
 42
0.000000
  0
SEQEND
  0
POLYLINE
  8
PG_SILKSCREEN_TOP
 66
1
 70
0
 40
0.000000
 41
0.000000
 39
0.000000
  0
VERTEX
  8
PG_SILKSCREEN_TOP
 10
72.220000
 20
116.032000
 40
0.203200
 41
0.203200
 42
0.000000
  0
VERTEX
  8
PG_SILKSCREEN_TOP
 10
71.712000
 20
116.540000
 40
0.203200
 41
0.203200
 42
0.000000
  0
VERTEX
  8
PG_SILKSCREEN_TOP
 10
70.188000
 20
116.540000
 40
0.203200
 41
0.203200
 42
0.000000
  0
VERTEX
  8
PG_SILKSCREEN_TOP
 10
69.680000
 20
116.032000
 40
0.203200
 41
0.203200
 42
0.000000
  0
SEQEND
  0
POLYLINE
  8
PG_SILKSCREEN_TOP
 66
1
 70
0
 40
0.000000
 41
0.000000
 39
0.000000
  0
VERTEX
  8
PG_SILKSCREEN_TOP
 10
74.760000
 20
116.032000
 40
0.203200
 41
0.203200
 42
0.000000
  0
VERTEX
  8
PG_SILKSCREEN_TOP
 10
74.252000
 20
116.540000
 40
0.203200
 41
0.203200
 42
0.000000
  0
VERTEX
  8
PG_SILKSCREEN_TOP
 10
72.728000
 20
116.540000
 40
0.203200
 41
0.203200
 42
0.000000
  0
VERTEX
  8
PG_SILKSCREEN_TOP
 10
72.220000
 20
116.032000
 40
0.203200
 41
0.203200
 42
0.000000
  0
SEQEND
  0
POLYLINE
  8
PG_SILKSCREEN_TOP
 66
1
 70
0
 40
0.000000
 41
0.000000
 39
0.000000
  0
VERTEX
  8
PG_SILKSCREEN_TOP
 10
77.300000
 20
116.032000
 40
0.203200
 41
0.203200
 42
0.000000
  0
VERTEX
  8
PG_SILKSCREEN_TOP
 10
76.792000
 20
116.540000
 40
0.203200
 41
0.203200
 42
0.000000
  0
VERTEX
  8
PG_SILKSCREEN_TOP
 10
75.268000
 20
116.540000
 40
0.203200
 41
0.203200
 42
0.000000
  0
VERTEX
  8
PG_SILKSCREEN_TOP
 10
74.760000
 20
116.032000
 40
0.203200
 41
0.203200
 42
0.000000
  0
SEQEND
  0
POLYLINE
  8
PG_SILKSCREEN_TOP
 66
1
 70
0
 40
0.000000
 41
0.000000
 39
0.000000
  0
VERTEX
  8
PG_SILKSCREEN_TOP
 10
79.840000
 20
116.032000
 40
0.203200
 41
0.203200
 42
0.000000
  0
VERTEX
  8
PG_SILKSCREEN_TOP
 10
79.332000
 20
116.540000
 40
0.203200
 41
0.203200
 42
0.000000
  0
VERTEX
  8
PG_SILKSCREEN_TOP
 10
77.808000
 20
116.540000
 40
0.203200
 41
0.203200
 42
0.000000
  0
VERTEX
  8
PG_SILKSCREEN_TOP
 10
77.300000
 20
116.032000
 40
0.203200
 41
0.203200
 42
0.000000
  0
SEQEND
  0
POLYLINE
  8
PG_SILKSCREEN_TOP
 66
1
 70
0
 40
0.000000
 41
0.000000
 39
0.000000
  0
VERTEX
  8
PG_SILKSCREEN_TOP
 10
82.380000
 20
116.032000
 40
0.203200
 41
0.203200
 42
0.000000
  0
VERTEX
  8
PG_SILKSCREEN_TOP
 10
81.872000
 20
116.540000
 40
0.203200
 41
0.203200
 42
0.000000
  0
VERTEX
  8
PG_SILKSCREEN_TOP
 10
80.348000
 20
116.540000
 40
0.203200
 41
0.203200
 42
0.000000
  0
VERTEX
  8
PG_SILKSCREEN_TOP
 10
79.840000
 20
116.032000
 40
0.203200
 41
0.203200
 42
0.000000
  0
SEQEND
  0
POLYLINE
  8
PG_SILKSCREEN_TOP
 66
1
 70
0
 40
0.000000
 41
0.000000
 39
0.000000
  0
VERTEX
  8
PG_SILKSCREEN_TOP
 10
84.920000
 20
116.032000
 40
0.203200
 41
0.203200
 42
0.000000
  0
VERTEX
  8
PG_SILKSCREEN_TOP
 10
84.412000
 20
116.540000
 40
0.203200
 41
0.203200
 42
0.000000
  0
VERTEX
  8
PG_SILKSCREEN_TOP
 10
82.888000
 20
116.540000
 40
0.203200
 41
0.203200
 42
0.000000
  0
VERTEX
  8
PG_SILKSCREEN_TOP
 10
82.380000
 20
116.032000
 40
0.203200
 41
0.203200
 42
0.000000
  0
SEQEND
  0
POLYLINE
  8
PG_SILKSCREEN_TOP
 66
1
 70
0
 40
0.000000
 41
0.000000
 39
0.000000
  0
VERTEX
  8
PG_SILKSCREEN_TOP
 10
87.460000
 20
116.032000
 40
0.203200
 41
0.203200
 42
0.000000
  0
VERTEX
  8
PG_SILKSCREEN_TOP
 10
86.952000
 20
116.540000
 40
0.203200
 41
0.203200
 42
0.000000
  0
VERTEX
  8
PG_SILKSCREEN_TOP
 10
85.428000
 20
116.540000
 40
0.203200
 41
0.203200
 42
0.000000
  0
VERTEX
  8
PG_SILKSCREEN_TOP
 10
84.920000
 20
116.032000
 40
0.203200
 41
0.203200
 42
0.000000
  0
SEQEND
  0
POLYLINE
  8
PG_SILKSCREEN_TOP
 66
1
 70
0
 40
0.000000
 41
0.000000
 39
0.000000
  0
VERTEX
  8
PG_SILKSCREEN_TOP
 10
90.000000
 20
116.032000
 40
0.203200
 41
0.203200
 42
0.000000
  0
VERTEX
  8
PG_SILKSCREEN_TOP
 10
89.492000
 20
116.540000
 40
0.203200
 41
0.203200
 42
0.000000
  0
VERTEX
  8
PG_SILKSCREEN_TOP
 10
87.968000
 20
116.540000
 40
0.203200
 41
0.203200
 42
0.000000
  0
VERTEX
  8
PG_SILKSCREEN_TOP
 10
87.460000
 20
116.032000
 40
0.203200
 41
0.203200
 42
0.000000
  0
SEQEND
  0
POLYLINE
  8
PG_SILKSCREEN_TOP
 66
1
 70
0
 40
0.000000
 41
0.000000
 39
0.000000
  0
VERTEX
  8
PG_SILKSCREEN_TOP
 10
92.540000
 20
116.032000
 40
0.203200
 41
0.203200
 42
0.000000
  0
VERTEX
  8
PG_SILKSCREEN_TOP
 10
92.032000
 20
116.540000
 40
0.203200
 41
0.203200
 42
0.000000
  0
VERTEX
  8
PG_SILKSCREEN_TOP
 10
90.508000
 20
116.540000
 40
0.203200
 41
0.203200
 42
0.000000
  0
VERTEX
  8
PG_SILKSCREEN_TOP
 10
90.000000
 20
116.032000
 40
0.203200
 41
0.203200
 42
0.000000
  0
SEQEND
  0
POLYLINE
  8
PG_SILKSCREEN_TOP
 66
1
 70
0
 40
0.000000
 41
0.000000
 39
0.000000
  0
VERTEX
  8
PG_SILKSCREEN_TOP
 10
95.080000
 20
116.032000
 40
0.203200
 41
0.203200
 42
0.000000
  0
VERTEX
  8
PG_SILKSCREEN_TOP
 10
94.572000
 20
116.540000
 40
0.203200
 41
0.203200
 42
0.000000
  0
VERTEX
  8
PG_SILKSCREEN_TOP
 10
93.048000
 20
116.540000
 40
0.203200
 41
0.203200
 42
0.000000
  0
VERTEX
  8
PG_SILKSCREEN_TOP
 10
92.540000
 20
116.032000
 40
0.203200
 41
0.203200
 42
0.000000
  0
SEQEND
  0
POLYLINE
  8
PG_SILKSCREEN_TOP
 66
1
 70
0
 40
0.000000
 41
0.000000
 39
0.000000
  0
VERTEX
  8
PG_SILKSCREEN_TOP
 10
97.620000
 20
116.032000
 40
0.203200
 41
0.203200
 42
0.000000
  0
VERTEX
  8
PG_SILKSCREEN_TOP
 10
97.112000
 20
116.540000
 40
0.203200
 41
0.203200
 42
0.000000
  0
VERTEX
  8
PG_SILKSCREEN_TOP
 10
95.588000
 20
116.540000
 40
0.203200
 41
0.203200
 42
0.000000
  0
VERTEX
  8
PG_SILKSCREEN_TOP
 10
95.080000
 20
116.032000
 40
0.203200
 41
0.203200
 42
0.000000
  0
SEQEND
  0
POLYLINE
  8
PG_SILKSCREEN_TOP
 66
1
 70
0
 40
0.000000
 41
0.000000
 39
0.000000
  0
VERTEX
  8
PG_SILKSCREEN_TOP
 10
100.160000
 20
116.032000
 40
0.203200
 41
0.203200
 42
0.000000
  0
VERTEX
  8
PG_SILKSCREEN_TOP
 10
99.652000
 20
116.540000
 40
0.203200
 41
0.203200
 42
0.000000
  0
VERTEX
  8
PG_SILKSCREEN_TOP
 10
98.128000
 20
116.540000
 40
0.203200
 41
0.203200
 42
0.000000
  0
VERTEX
  8
PG_SILKSCREEN_TOP
 10
97.620000
 20
116.032000
 40
0.203200
 41
0.203200
 42
0.000000
  0
SEQEND
  0
POLYLINE
  8
PG_SILKSCREEN_TOP
 66
1
 70
0
 40
0.000000
 41
0.000000
 39
0.000000
  0
VERTEX
  8
PG_SILKSCREEN_TOP
 10
102.700000
 20
116.032000
 40
0.203200
 41
0.203200
 42
0.000000
  0
VERTEX
  8
PG_SILKSCREEN_TOP
 10
102.192000
 20
116.540000
 40
0.203200
 41
0.203200
 42
0.000000
  0
VERTEX
  8
PG_SILKSCREEN_TOP
 10
100.668000
 20
116.540000
 40
0.203200
 41
0.203200
 42
0.000000
  0
VERTEX
  8
PG_SILKSCREEN_TOP
 10
100.160000
 20
116.032000
 40
0.203200
 41
0.203200
 42
0.000000
  0
SEQEND
  0
POLYLINE
  8
PG_SILKSCREEN_TOP
 66
1
 70
0
 40
0.000000
 41
0.000000
 39
0.000000
  0
VERTEX
  8
PG_SILKSCREEN_TOP
 10
105.240000
 20
116.032000
 40
0.203200
 41
0.203200
 42
0.000000
  0
VERTEX
  8
PG_SILKSCREEN_TOP
 10
104.732000
 20
116.540000
 40
0.203200
 41
0.203200
 42
0.000000
  0
VERTEX
  8
PG_SILKSCREEN_TOP
 10
103.208000
 20
116.540000
 40
0.203200
 41
0.203200
 42
0.000000
  0
VERTEX
  8
PG_SILKSCREEN_TOP
 10
102.700000
 20
116.032000
 40
0.203200
 41
0.203200
 42
0.000000
  0
SEQEND
  0
POLYLINE
  8
PG_SILKSCREEN_TOP
 66
1
 70
0
 40
0.000000
 41
0.000000
 39
0.000000
  0
VERTEX
  8
PG_SILKSCREEN_TOP
 10
107.780000
 20
116.032000
 40
0.203200
 41
0.203200
 42
0.000000
  0
VERTEX
  8
PG_SILKSCREEN_TOP
 10
107.272000
 20
116.540000
 40
0.203200
 41
0.203200
 42
0.000000
  0
VERTEX
  8
PG_SILKSCREEN_TOP
 10
105.748000
 20
116.540000
 40
0.203200
 41
0.203200
 42
0.000000
  0
VERTEX
  8
PG_SILKSCREEN_TOP
 10
105.240000
 20
116.032000
 40
0.203200
 41
0.203200
 42
0.000000
  0
SEQEND
  0
POLYLINE
  8
PG_SILKSCREEN_TOP
 66
1
 70
0
 40
0.000000
 41
0.000000
 39
0.000000
  0
VERTEX
  8
PG_SILKSCREEN_TOP
 10
110.320000
 20
116.032000
 40
0.203200
 41
0.203200
 42
0.000000
  0
VERTEX
  8
PG_SILKSCREEN_TOP
 10
109.812000
 20
116.540000
 40
0.203200
 41
0.203200
 42
0.000000
  0
VERTEX
  8
PG_SILKSCREEN_TOP
 10
108.288000
 20
116.540000
 40
0.203200
 41
0.203200
 42
0.000000
  0
VERTEX
  8
PG_SILKSCREEN_TOP
 10
107.780000
 20
116.032000
 40
0.203200
 41
0.203200
 42
0.000000
  0
SEQEND
  0
POLYLINE
  8
PG_SILKSCREEN_TOP
 66
1
 70
0
 40
0.000000
 41
0.000000
 39
0.000000
  0
VERTEX
  8
PG_SILKSCREEN_TOP
 10
112.860000
 20
116.032000
 40
0.203200
 41
0.203200
 42
0.000000
  0
VERTEX
  8
PG_SILKSCREEN_TOP
 10
112.352000
 20
116.540000
 40
0.203200
 41
0.203200
 42
0.000000
  0
VERTEX
  8
PG_SILKSCREEN_TOP
 10
110.828000
 20
116.540000
 40
0.203200
 41
0.203200
 42
0.000000
  0
VERTEX
  8
PG_SILKSCREEN_TOP
 10
110.320000
 20
116.032000
 40
0.203200
 41
0.203200
 42
0.000000
  0
SEQEND
  0
POLYLINE
  8
PG_SILKSCREEN_TOP
 66
1
 70
0
 40
0.000000
 41
0.000000
 39
0.000000
  0
VERTEX
  8
PG_SILKSCREEN_TOP
 10
115.400000
 20
116.032000
 40
0.203200
 41
0.203200
 42
0.000000
  0
VERTEX
  8
PG_SILKSCREEN_TOP
 10
114.892000
 20
116.540000
 40
0.203200
 41
0.203200
 42
0.000000
  0
VERTEX
  8
PG_SILKSCREEN_TOP
 10
113.368000
 20
116.540000
 40
0.203200
 41
0.203200
 42
0.000000
  0
VERTEX
  8
PG_SILKSCREEN_TOP
 10
112.860000
 20
116.032000
 40
0.203200
 41
0.203200
 42
0.000000
  0
SEQEND
  0
POLYLINE
  8
PG_SILKSCREEN_TOP
 66
1
 70
0
 40
0.000000
 41
0.000000
 39
0.000000
  0
VERTEX
  8
PG_SILKSCREEN_TOP
 10
114.892000
 20
111.460000
 40
0.203200
 41
0.203200
 42
0.000000
  0
VERTEX
  8
PG_SILKSCREEN_TOP
 10
115.400000
 20
111.968000
 40
0.203200
 41
0.203200
 42
0.000000
  0
VERTEX
  8
PG_SILKSCREEN_TOP
 10
115.400000
 20
113.492000
 40
0.203200
 41
0.203200
 42
0.000000
  0
VERTEX
  8
PG_SILKSCREEN_TOP
 10
114.892000
 20
114.000000
 40
0.203200
 41
0.203200
 42
0.000000
  0
SEQEND
  0
POLYLINE
  8
PG_SILKSCREEN_TOP
 66
1
 70
0
 40
0.000000
 41
0.000000
 39
0.000000
  0
VERTEX
  8
PG_SILKSCREEN_TOP
 10
114.892000
 20
114.000000
 40
0.203200
 41
0.203200
 42
0.000000
  0
VERTEX
  8
PG_SILKSCREEN_TOP
 10
115.400000
 20
114.508000
 40
0.203200
 41
0.203200
 42
0.000000
  0
VERTEX
  8
PG_SILKSCREEN_TOP
 10
115.400000
 20
116.032000
 40
0.203200
 41
0.203200
 42
0.000000
  0
VERTEX
  8
PG_SILKSCREEN_TOP
 10
114.892000
 20
116.540000
 40
0.203200
 41
0.203200
 42
0.000000
  0
SEQEND
  0
POLYLINE
  8
PG_SILKSCREEN_TOP
 66
1
 70
0
 40
0.000000
 41
0.000000
 39
0.000000
  0
VERTEX
  8
PG_SILKSCREEN_TOP
 10
112.860000
 20
111.968000
 40
0.203200
 41
0.203200
 42
0.000000
  0
VERTEX
  8
PG_SILKSCREEN_TOP
 10
113.368000
 20
111.460000
 40
0.203200
 41
0.203200
 42
0.000000
  0
VERTEX
  8
PG_SILKSCREEN_TOP
 10
114.892000
 20
111.460000
 40
0.203200
 41
0.203200
 42
0.000000
  0
VERTEX
  8
PG_SILKSCREEN_TOP
 10
115.400000
 20
111.968000
 40
0.203200
 41
0.203200
 42
0.000000
  0
SEQEND
  0
POLYLINE
  8
PG_SILKSCREEN_TOP
 66
1
 70
0
 40
0.000000
 41
0.000000
 39
0.000000
  0
VERTEX
  8
PG_SILKSCREEN_TOP
 10
110.320000
 20
111.968000
 40
0.203200
 41
0.203200
 42
0.000000
  0
VERTEX
  8
PG_SILKSCREEN_TOP
 10
110.828000
 20
111.460000
 40
0.203200
 41
0.203200
 42
0.000000
  0
VERTEX
  8
PG_SILKSCREEN_TOP
 10
112.352000
 20
111.460000
 40
0.203200
 41
0.203200
 42
0.000000
  0
VERTEX
  8
PG_SILKSCREEN_TOP
 10
112.860000
 20
111.968000
 40
0.203200
 41
0.203200
 42
0.000000
  0
SEQEND
  0
POLYLINE
  8
PG_SILKSCREEN_TOP
 66
1
 70
0
 40
0.000000
 41
0.000000
 39
0.000000
  0
VERTEX
  8
PG_SILKSCREEN_TOP
 10
107.780000
 20
111.968000
 40
0.203200
 41
0.203200
 42
0.000000
  0
VERTEX
  8
PG_SILKSCREEN_TOP
 10
108.288000
 20
111.460000
 40
0.203200
 41
0.203200
 42
0.000000
  0
VERTEX
  8
PG_SILKSCREEN_TOP
 10
109.812000
 20
111.460000
 40
0.203200
 41
0.203200
 42
0.000000
  0
VERTEX
  8
PG_SILKSCREEN_TOP
 10
110.320000
 20
111.968000
 40
0.203200
 41
0.203200
 42
0.000000
  0
SEQEND
  0
POLYLINE
  8
PG_SILKSCREEN_TOP
 66
1
 70
0
 40
0.000000
 41
0.000000
 39
0.000000
  0
VERTEX
  8
PG_SILKSCREEN_TOP
 10
105.240000
 20
111.968000
 40
0.203200
 41
0.203200
 42
0.000000
  0
VERTEX
  8
PG_SILKSCREEN_TOP
 10
105.748000
 20
111.460000
 40
0.203200
 41
0.203200
 42
0.000000
  0
VERTEX
  8
PG_SILKSCREEN_TOP
 10
107.272000
 20
111.460000
 40
0.203200
 41
0.203200
 42
0.000000
  0
VERTEX
  8
PG_SILKSCREEN_TOP
 10
107.780000
 20
111.968000
 40
0.203200
 41
0.203200
 42
0.000000
  0
SEQEND
  0
POLYLINE
  8
PG_SILKSCREEN_TOP
 66
1
 70
0
 40
0.000000
 41
0.000000
 39
0.000000
  0
VERTEX
  8
PG_SILKSCREEN_TOP
 10
102.700000
 20
111.968000
 40
0.203200
 41
0.203200
 42
0.000000
  0
VERTEX
  8
PG_SILKSCREEN_TOP
 10
103.208000
 20
111.460000
 40
0.203200
 41
0.203200
 42
0.000000
  0
VERTEX
  8
PG_SILKSCREEN_TOP
 10
104.732000
 20
111.460000
 40
0.203200
 41
0.203200
 42
0.000000
  0
VERTEX
  8
PG_SILKSCREEN_TOP
 10
105.240000
 20
111.968000
 40
0.203200
 41
0.203200
 42
0.000000
  0
SEQEND
  0
POLYLINE
  8
PG_SILKSCREEN_TOP
 66
1
 70
0
 40
0.000000
 41
0.000000
 39
0.000000
  0
VERTEX
  8
PG_SILKSCREEN_TOP
 10
100.160000
 20
111.968000
 40
0.203200
 41
0.203200
 42
0.000000
  0
VERTEX
  8
PG_SILKSCREEN_TOP
 10
100.668000
 20
111.460000
 40
0.203200
 41
0.203200
 42
0.000000
  0
VERTEX
  8
PG_SILKSCREEN_TOP
 10
102.192000
 20
111.460000
 40
0.203200
 41
0.203200
 42
0.000000
  0
VERTEX
  8
PG_SILKSCREEN_TOP
 10
102.700000
 20
111.968000
 40
0.203200
 41
0.203200
 42
0.000000
  0
SEQEND
  0
POLYLINE
  8
PG_SILKSCREEN_TOP
 66
1
 70
0
 40
0.000000
 41
0.000000
 39
0.000000
  0
VERTEX
  8
PG_SILKSCREEN_TOP
 10
97.620000
 20
111.968000
 40
0.203200
 41
0.203200
 42
0.000000
  0
VERTEX
  8
PG_SILKSCREEN_TOP
 10
98.128000
 20
111.460000
 40
0.203200
 41
0.203200
 42
0.000000
  0
VERTEX
  8
PG_SILKSCREEN_TOP
 10
99.652000
 20
111.460000
 40
0.203200
 41
0.203200
 42
0.000000
  0
VERTEX
  8
PG_SILKSCREEN_TOP
 10
100.160000
 20
111.968000
 40
0.203200
 41
0.203200
 42
0.000000
  0
SEQEND
  0
POLYLINE
  8
PG_SILKSCREEN_TOP
 66
1
 70
0
 40
0.000000
 41
0.000000
 39
0.000000
  0
VERTEX
  8
PG_SILKSCREEN_TOP
 10
95.080000
 20
111.968000
 40
0.203200
 41
0.203200
 42
0.000000
  0
VERTEX
  8
PG_SILKSCREEN_TOP
 10
95.588000
 20
111.460000
 40
0.203200
 41
0.203200
 42
0.000000
  0
VERTEX
  8
PG_SILKSCREEN_TOP
 10
97.112000
 20
111.460000
 40
0.203200
 41
0.203200
 42
0.000000
  0
VERTEX
  8
PG_SILKSCREEN_TOP
 10
97.620000
 20
111.968000
 40
0.203200
 41
0.203200
 42
0.000000
  0
SEQEND
  0
POLYLINE
  8
PG_SILKSCREEN_TOP
 66
1
 70
0
 40
0.000000
 41
0.000000
 39
0.000000
  0
VERTEX
  8
PG_SILKSCREEN_TOP
 10
92.540000
 20
111.968000
 40
0.203200
 41
0.203200
 42
0.000000
  0
VERTEX
  8
PG_SILKSCREEN_TOP
 10
93.048000
 20
111.460000
 40
0.203200
 41
0.203200
 42
0.000000
  0
VERTEX
  8
PG_SILKSCREEN_TOP
 10
94.572000
 20
111.460000
 40
0.203200
 41
0.203200
 42
0.000000
  0
VERTEX
  8
PG_SILKSCREEN_TOP
 10
95.080000
 20
111.968000
 40
0.203200
 41
0.203200
 42
0.000000
  0
SEQEND
  0
POLYLINE
  8
PG_SILKSCREEN_TOP
 66
1
 70
0
 40
0.000000
 41
0.000000
 39
0.000000
  0
VERTEX
  8
PG_SILKSCREEN_TOP
 10
90.000000
 20
111.968000
 40
0.203200
 41
0.203200
 42
0.000000
  0
VERTEX
  8
PG_SILKSCREEN_TOP
 10
90.508000
 20
111.460000
 40
0.203200
 41
0.203200
 42
0.000000
  0
VERTEX
  8
PG_SILKSCREEN_TOP
 10
92.032000
 20
111.460000
 40
0.203200
 41
0.203200
 42
0.000000
  0
VERTEX
  8
PG_SILKSCREEN_TOP
 10
92.540000
 20
111.968000
 40
0.203200
 41
0.203200
 42
0.000000
  0
SEQEND
  0
POLYLINE
  8
PG_SILKSCREEN_TOP
 66
1
 70
0
 40
0.000000
 41
0.000000
 39
0.000000
  0
VERTEX
  8
PG_SILKSCREEN_TOP
 10
87.460000
 20
111.968000
 40
0.203200
 41
0.203200
 42
0.000000
  0
VERTEX
  8
PG_SILKSCREEN_TOP
 10
87.968000
 20
111.460000
 40
0.203200
 41
0.203200
 42
0.000000
  0
VERTEX
  8
PG_SILKSCREEN_TOP
 10
89.492000
 20
111.460000
 40
0.203200
 41
0.203200
 42
0.000000
  0
VERTEX
  8
PG_SILKSCREEN_TOP
 10
90.000000
 20
111.968000
 40
0.203200
 41
0.203200
 42
0.000000
  0
SEQEND
  0
POLYLINE
  8
PG_SILKSCREEN_TOP
 66
1
 70
0
 40
0.000000
 41
0.000000
 39
0.000000
  0
VERTEX
  8
PG_SILKSCREEN_TOP
 10
84.920000
 20
111.968000
 40
0.203200
 41
0.203200
 42
0.000000
  0
VERTEX
  8
PG_SILKSCREEN_TOP
 10
85.428000
 20
111.460000
 40
0.203200
 41
0.203200
 42
0.000000
  0
VERTEX
  8
PG_SILKSCREEN_TOP
 10
86.952000
 20
111.460000
 40
0.203200
 41
0.203200
 42
0.000000
  0
VERTEX
  8
PG_SILKSCREEN_TOP
 10
87.460000
 20
111.968000
 40
0.203200
 41
0.203200
 42
0.000000
  0
SEQEND
  0
POLYLINE
  8
PG_SILKSCREEN_TOP
 66
1
 70
0
 40
0.000000
 41
0.000000
 39
0.000000
  0
VERTEX
  8
PG_SILKSCREEN_TOP
 10
82.380000
 20
111.968000
 40
0.203200
 41
0.203200
 42
0.000000
  0
VERTEX
  8
PG_SILKSCREEN_TOP
 10
82.888000
 20
111.460000
 40
0.203200
 41
0.203200
 42
0.000000
  0
VERTEX
  8
PG_SILKSCREEN_TOP
 10
84.412000
 20
111.460000
 40
0.203200
 41
0.203200
 42
0.000000
  0
VERTEX
  8
PG_SILKSCREEN_TOP
 10
84.920000
 20
111.968000
 40
0.203200
 41
0.203200
 42
0.000000
  0
SEQEND
  0
POLYLINE
  8
PG_SILKSCREEN_TOP
 66
1
 70
0
 40
0.000000
 41
0.000000
 39
0.000000
  0
VERTEX
  8
PG_SILKSCREEN_TOP
 10
79.840000
 20
111.968000
 40
0.203200
 41
0.203200
 42
0.000000
  0
VERTEX
  8
PG_SILKSCREEN_TOP
 10
80.348000
 20
111.460000
 40
0.203200
 41
0.203200
 42
0.000000
  0
VERTEX
  8
PG_SILKSCREEN_TOP
 10
81.872000
 20
111.460000
 40
0.203200
 41
0.203200
 42
0.000000
  0
VERTEX
  8
PG_SILKSCREEN_TOP
 10
82.380000
 20
111.968000
 40
0.203200
 41
0.203200
 42
0.000000
  0
SEQEND
  0
POLYLINE
  8
PG_SILKSCREEN_TOP
 66
1
 70
0
 40
0.000000
 41
0.000000
 39
0.000000
  0
VERTEX
  8
PG_SILKSCREEN_TOP
 10
77.300000
 20
111.968000
 40
0.203200
 41
0.203200
 42
0.000000
  0
VERTEX
  8
PG_SILKSCREEN_TOP
 10
77.808000
 20
111.460000
 40
0.203200
 41
0.203200
 42
0.000000
  0
VERTEX
  8
PG_SILKSCREEN_TOP
 10
79.332000
 20
111.460000
 40
0.203200
 41
0.203200
 42
0.000000
  0
VERTEX
  8
PG_SILKSCREEN_TOP
 10
79.840000
 20
111.968000
 40
0.203200
 41
0.203200
 42
0.000000
  0
SEQEND
  0
POLYLINE
  8
PG_SILKSCREEN_TOP
 66
1
 70
0
 40
0.000000
 41
0.000000
 39
0.000000
  0
VERTEX
  8
PG_SILKSCREEN_TOP
 10
74.760000
 20
111.968000
 40
0.203200
 41
0.203200
 42
0.000000
  0
VERTEX
  8
PG_SILKSCREEN_TOP
 10
75.268000
 20
111.460000
 40
0.203200
 41
0.203200
 42
0.000000
  0
VERTEX
  8
PG_SILKSCREEN_TOP
 10
76.792000
 20
111.460000
 40
0.203200
 41
0.203200
 42
0.000000
  0
VERTEX
  8
PG_SILKSCREEN_TOP
 10
77.300000
 20
111.968000
 40
0.203200
 41
0.203200
 42
0.000000
  0
SEQEND
  0
POLYLINE
  8
PG_SILKSCREEN_TOP
 66
1
 70
0
 40
0.000000
 41
0.000000
 39
0.000000
  0
VERTEX
  8
PG_SILKSCREEN_TOP
 10
72.220000
 20
111.968000
 40
0.203200
 41
0.203200
 42
0.000000
  0
VERTEX
  8
PG_SILKSCREEN_TOP
 10
72.728000
 20
111.460000
 40
0.203200
 41
0.203200
 42
0.000000
  0
VERTEX
  8
PG_SILKSCREEN_TOP
 10
74.252000
 20
111.460000
 40
0.203200
 41
0.203200
 42
0.000000
  0
VERTEX
  8
PG_SILKSCREEN_TOP
 10
74.760000
 20
111.968000
 40
0.203200
 41
0.203200
 42
0.000000
  0
SEQEND
  0
POLYLINE
  8
PG_SILKSCREEN_TOP
 66
1
 70
0
 40
0.000000
 41
0.000000
 39
0.000000
  0
VERTEX
  8
PG_SILKSCREEN_TOP
 10
69.680000
 20
111.968000
 40
0.203200
 41
0.203200
 42
0.000000
  0
VERTEX
  8
PG_SILKSCREEN_TOP
 10
70.188000
 20
111.460000
 40
0.203200
 41
0.203200
 42
0.000000
  0
VERTEX
  8
PG_SILKSCREEN_TOP
 10
71.712000
 20
111.460000
 40
0.203200
 41
0.203200
 42
0.000000
  0
VERTEX
  8
PG_SILKSCREEN_TOP
 10
72.220000
 20
111.968000
 40
0.203200
 41
0.203200
 42
0.000000
  0
SEQEND
  0
POLYLINE
  8
PG_SILKSCREEN_TOP
 66
1
 70
0
 40
0.000000
 41
0.000000
 39
0.000000
  0
VERTEX
  8
PG_SILKSCREEN_TOP
 10
67.140000
 20
111.968000
 40
0.203200
 41
0.203200
 42
0.000000
  0
VERTEX
  8
PG_SILKSCREEN_TOP
 10
67.648000
 20
111.460000
 40
0.203200
 41
0.203200
 42
0.000000
  0
VERTEX
  8
PG_SILKSCREEN_TOP
 10
69.172000
 20
111.460000
 40
0.203200
 41
0.203200
 42
0.000000
  0
VERTEX
  8
PG_SILKSCREEN_TOP
 10
69.680000
 20
111.968000
 40
0.203200
 41
0.203200
 42
0.000000
  0
SEQEND
  0
POLYLINE
  8
PG_SILKSCREEN_TOP
 66
1
 70
0
 40
0.000000
 41
0.000000
 39
0.000000
  0
VERTEX
  8
PG_SILKSCREEN_TOP
 10
64.600000
 20
111.968000
 40
0.203200
 41
0.203200
 42
0.000000
  0
VERTEX
  8
PG_SILKSCREEN_TOP
 10
65.108000
 20
111.460000
 40
0.203200
 41
0.203200
 42
0.000000
  0
VERTEX
  8
PG_SILKSCREEN_TOP
 10
66.632000
 20
111.460000
 40
0.203200
 41
0.203200
 42
0.000000
  0
VERTEX
  8
PG_SILKSCREEN_TOP
 10
67.140000
 20
111.968000
 40
0.203200
 41
0.203200
 42
0.000000
  0
SEQEND
  0
POLYLINE
  8
PG_SILKSCREEN_TOP
 66
1
 70
0
 40
0.000000
 41
0.000000
 39
0.000000
  0
VERTEX
  8
PG_SILKSCREEN_TOP
 10
65.108000
 20
116.540000
 40
0.203200
 41
0.203200
 42
0.000000
  0
VERTEX
  8
PG_SILKSCREEN_TOP
 10
64.600000
 20
116.032000
 40
0.203200
 41
0.203200
 42
0.000000
  0
VERTEX
  8
PG_SILKSCREEN_TOP
 10
64.600000
 20
114.508000
 40
0.203200
 41
0.203200
 42
0.000000
  0
VERTEX
  8
PG_SILKSCREEN_TOP
 10
65.108000
 20
114.000000
 40
0.203200
 41
0.203200
 42
0.000000
  0
SEQEND
  0
POLYLINE
  8
PG_SILKSCREEN_TOP
 66
1
 70
0
 40
0.000000
 41
0.000000
 39
0.000000
  0
VERTEX
  8
PG_SILKSCREEN_TOP
 10
65.108000
 20
114.000000
 40
0.203200
 41
0.203200
 42
0.000000
  0
VERTEX
  8
PG_SILKSCREEN_TOP
 10
64.600000
 20
113.492000
 40
0.203200
 41
0.203200
 42
0.000000
  0
VERTEX
  8
PG_SILKSCREEN_TOP
 10
64.600000
 20
111.968000
 40
0.203200
 41
0.203200
 42
0.000000
  0
VERTEX
  8
PG_SILKSCREEN_TOP
 10
65.108000
 20
111.460000
 40
0.203200
 41
0.203200
 42
0.000000
  0
SEQEND
  0
POLYLINE
  8
PG_SILKSCREEN_TOP
 66
1
 70
1
 40
0.000000
 41
0.000000
 39
0.000000
  0
VERTEX
  8
PG_SILKSCREEN_TOP
 10
64.600000
 20
114.000000
 40
0.254000
 41
0.254000
 42
0.000000
  0
VERTEX
  8
PG_SILKSCREEN_TOP
 10
67.140000
 20
114.000000
 40
0.254000
 41
0.254000
 42
0.000000
  0
VERTEX
  8
PG_SILKSCREEN_TOP
 10
67.140000
 20
111.460000
 40
0.254000
 41
0.254000
 42
0.000000
  0
VERTEX
  8
PG_SILKSCREEN_TOP
 10
64.600000
 20
111.460000
 40
0.254000
 41
0.254000
 42
0.000000
  0
SEQEND
  0
POLYLINE
  8
PG_SILKSCREEN_TOP
 66
1
 70
0
 40
0.000000
 41
0.000000
 39
0.000000
  0
VERTEX
  8
PG_SILKSCREEN_TOP
 10
65.108000
 20
111.460000
 40
0.203200
 41
0.203200
 42
0.000000
  0
VERTEX
  8
PG_SILKSCREEN_TOP
 10
65.108000
 20
110.698000
 40
0.203200
 41
0.203200
 42
0.000000
  0
VERTEX
  8
PG_SILKSCREEN_TOP
 10
66.632000
 20
110.698000
 40
0.203200
 41
0.203200
 42
0.000000
  0
VERTEX
  8
PG_SILKSCREEN_TOP
 10
66.632000
 20
111.460000
 40
0.203200
 41
0.203200
 42
0.000000
  0
SEQEND
  0
POLYLINE
  8
PIN_TOP
 66
1
 70
1
 40
0.000000
 41
0.000000
 39
0.000000
  0
VERTEX
  8
PIN_TOP
 10
73.322600
 20
89.462600
 40
0.000000
 41
0.000000
 42
0.000000
  0
VERTEX
  8
PIN_TOP
 10
73.322600
 20
91.037400
 40
0.000000
 41
0.000000
 42
0.000000
  0
VERTEX
  8
PIN_TOP
 10
74.897400
 20
91.037400
 40
0.000000
 41
0.000000
 42
0.000000
  0
VERTEX
  8
PIN_TOP
 10
74.897400
 20
89.462600
 40
0.000000
 41
0.000000
 42
0.000000
  0
SEQEND
  0
POLYLINE
  8
PIN_IN1-LAYER3
 66
1
 70
1
 40
0.000000
 41
0.000000
 39
0.000000
  0
VERTEX
  8
PIN_IN1-LAYER3
 10
73.322600
 20
89.462600
 40
0.000000
 41
0.000000
 42
0.000000
  0
VERTEX
  8
PIN_IN1-LAYER3
 10
73.322600
 20
91.037400
 40
0.000000
 41
0.000000
 42
0.000000
  0
VERTEX
  8
PIN_IN1-LAYER3
 10
74.897400
 20
91.037400
 40
0.000000
 41
0.000000
 42
0.000000
  0
VERTEX
  8
PIN_IN1-LAYER3
 10
74.897400
 20
89.462600
 40
0.000000
 41
0.000000
 42
0.000000
  0
SEQEND
  0
POLYLINE
  8
PIN_IN2-LAYER4
 66
1
 70
1
 40
0.000000
 41
0.000000
 39
0.000000
  0
VERTEX
  8
PIN_IN2-LAYER4
 10
73.322600
 20
89.462600
 40
0.000000
 41
0.000000
 42
0.000000
  0
VERTEX
  8
PIN_IN2-LAYER4
 10
73.322600
 20
91.037400
 40
0.000000
 41
0.000000
 42
0.000000
  0
VERTEX
  8
PIN_IN2-LAYER4
 10
74.897400
 20
91.037400
 40
0.000000
 41
0.000000
 42
0.000000
  0
VERTEX
  8
PIN_IN2-LAYER4
 10
74.897400
 20
89.462600
 40
0.000000
 41
0.000000
 42
0.000000
  0
SEQEND
  0
INSERT
  8
MANUFACTURING_NCDRILL_FIGURE
  2
FIGURE_CIRCLE
 10
74.110000
 20
90.250000
 41
0.863600
 42
0.863600
 50
0.000000
  0
CIRCLE
  8
PIN_TOP
 10
76.610000
 20
90.250000
 40
0.787400
  0
CIRCLE
  8
PIN_IN1-LAYER3
 10
76.610000
 20
90.250000
 40
0.787400
  0
CIRCLE
  8
PIN_IN2-LAYER4
 10
76.610000
 20
90.250000
 40
0.787400
  0
INSERT
  8
MANUFACTURING_NCDRILL_FIGURE
  2
FIGURE_CIRCLE
 10
76.610000
 20
90.250000
 41
0.863600
 42
0.863600
 50
0.000000
  0
CIRCLE
  8
PIN_TOP
 10
79.110000
 20
90.250000
 40
0.787400
  0
CIRCLE
  8
PIN_IN1-LAYER3
 10
79.110000
 20
90.250000
 40
0.787400
  0
CIRCLE
  8
PIN_IN2-LAYER4
 10
79.110000
 20
90.250000
 40
0.787400
  0
INSERT
  8
MANUFACTURING_NCDRILL_FIGURE
  2
FIGURE_CIRCLE
 10
79.110000
 20
90.250000
 41
0.863600
 42
0.863600
 50
0.000000
  0
CIRCLE
  8
PIN_TOP
 10
81.610000
 20
90.250000
 40
0.787400
  0
CIRCLE
  8
PIN_IN1-LAYER3
 10
81.610000
 20
90.250000
 40
0.787400
  0
CIRCLE
  8
PIN_IN2-LAYER4
 10
81.610000
 20
90.250000
 40
0.787400
  0
INSERT
  8
MANUFACTURING_NCDRILL_FIGURE
  2
FIGURE_CIRCLE
 10
81.610000
 20
90.250000
 41
0.863600
 42
0.863600
 50
0.000000
  0
POLYLINE
  8
PG_SILKSCREEN_TOP
 66
1
 70
1
 40
0.000000
 41
0.000000
 39
0.000000
  0
VERTEX
  8
PG_SILKSCREEN_TOP
 10
72.360000
 20
90.250000
 40
0.200000
 41
0.200000
 42
0.000000
  0
VERTEX
  8
PG_SILKSCREEN_TOP
 10
73.480000
 20
91.370000
 40
0.200000
 41
0.200000
 42
0.000000
  0
VERTEX
  8
PG_SILKSCREEN_TOP
 10
82.240000
 20
91.370000
 40
0.200000
 41
0.200000
 42
0.000000
  0
VERTEX
  8
PG_SILKSCREEN_TOP
 10
83.360000
 20
90.250000
 40
0.200000
 41
0.200000
 42
0.000000
  0
VERTEX
  8
PG_SILKSCREEN_TOP
 10
83.360000
 20
87.870000
 40
0.200000
 41
0.200000
 42
0.000000
  0
VERTEX
  8
PG_SILKSCREEN_TOP
 10
72.360000
 20
87.870000
 40
0.200000
 41
0.200000
 42
0.000000
  0
SEQEND
  0
POLYLINE
  8
PG_SILKSCREEN_TOP
 66
1
 70
1
 40
0.000000
 41
0.000000
 39
0.000000
  0
VERTEX
  8
PG_SILKSCREEN_TOP
 10
71.660000
 20
87.170000
 40
0.200000
 41
0.200000
 42
0.000000
  0
VERTEX
  8
PG_SILKSCREEN_TOP
 10
71.660000
 20
90.750000
 40
0.200000
 41
0.200000
 42
0.000000
  0
VERTEX
  8
PG_SILKSCREEN_TOP
 10
72.980000
 20
92.070000
 40
0.200000
 41
0.200000
 42
0.000000
  0
VERTEX
  8
PG_SILKSCREEN_TOP
 10
84.060000
 20
92.070000
 40
0.200000
 41
0.200000
 42
0.000000
  0
VERTEX
  8
PG_SILKSCREEN_TOP
 10
84.060000
 20
87.170000
 40
0.200000
 41
0.200000
 42
0.000000
  0
SEQEND
  0
POLYLINE
  8
PIN_TOP
 66
1
 70
1
 40
0.000000
 41
0.000000
 39
0.000000
  0
VERTEX
  8
PIN_TOP
 10
71.408000
 20
89.416000
 40
0.000000
 41
0.000000
 42
0.000000
  0
VERTEX
  8
PIN_TOP
 10
71.408000
 20
87.384000
 40
0.000000
 41
0.000000
 42
0.000000
  0
VERTEX
  8
PIN_TOP
 10
70.392000
 20
87.384000
 40
0.000000
 41
0.000000
 42
0.000000
  0
VERTEX
  8
PIN_TOP
 10
70.392000
 20
89.416000
 40
0.000000
 41
0.000000
 42
0.000000
  0
SEQEND
  0
POLYLINE
  8
PIN_TOP
 66
1
 70
1
 40
0.000000
 41
0.000000
 39
0.000000
  0
VERTEX
  8
PIN_TOP
 10
65.392000
 20
87.384000
 40
0.000000
 41
0.000000
 42
0.000000
  0
VERTEX
  8
PIN_TOP
 10
65.392000
 20
89.416000
 40
0.000000
 41
0.000000
 42
0.000000
  0
VERTEX
  8
PIN_TOP
 10
66.408000
 20
89.416000
 40
0.000000
 41
0.000000
 42
0.000000
  0
VERTEX
  8
PIN_TOP
 10
66.408000
 20
87.384000
 40
0.000000
 41
0.000000
 42
0.000000
  0
SEQEND
  0
POLYLINE
  8
PG_SILKSCREEN_TOP
 66
1
 70
0
 40
0.000000
 41
0.000000
 39
0.000000
  0
VERTEX
  8
PG_SILKSCREEN_TOP
 10
70.890000
 20
89.570000
 40
0.200000
 41
0.200000
 42
0.000000
  0
VERTEX
  8
PG_SILKSCREEN_TOP
 10
65.890000
 20
89.570000
 40
0.200000
 41
0.200000
 42
0.000000
  0
SEQEND
  0
POLYLINE
  8
PG_SILKSCREEN_TOP
 66
1
 70
0
 40
0.000000
 41
0.000000
 39
0.000000
  0
VERTEX
  8
PG_SILKSCREEN_TOP
 10
70.910000
 20
87.200000
 40
0.200000
 41
0.200000
 42
0.000000
  0
VERTEX
  8
PG_SILKSCREEN_TOP
 10
65.910000
 20
87.200000
 40
0.200000
 41
0.200000
 42
0.000000
  0
SEQEND
  0
POLYLINE
  8
PG_SILKSCREEN_TOP
 66
1
 70
1
 40
0.000000
 41
0.000000
 39
0.000000
  0
VERTEX
  8
PG_SILKSCREEN_TOP
 10
70.265000
 20
88.450000
 40
0.000000
 41
0.000000
 42
1.000000
  0
VERTEX
  8
PG_SILKSCREEN_TOP
 10
69.455000
 20
88.450000
 40
0.000000
 41
0.000000
 42
1.000000
  0
SEQEND
  0
POLYLINE
  8
PG_SILKSCREEN_TOP
 66
1
 70
1
 40
0.000000
 41
0.000000
 39
0.000000
  0
VERTEX
  8
PG_SILKSCREEN_TOP
 10
70.930000
 20
89.590000
 40
0.000000
 41
0.000000
 42
0.000000
  0
VERTEX
  8
PG_SILKSCREEN_TOP
 10
70.030000
 20
89.590000
 40
0.000000
 41
0.000000
 42
0.000000
  0
VERTEX
  8
PG_SILKSCREEN_TOP
 10
70.030000
 20
90.070000
 40
0.000000
 41
0.000000
 42
0.000000
  0
VERTEX
  8
PG_SILKSCREEN_TOP
 10
70.930000
 20
90.070000
 40
0.000000
 41
0.000000
 42
0.000000
  0
SEQEND
  0
POLYLINE
  8
PG_SILKSCREEN_TOP
 66
1
 70
1
 40
0.000000
 41
0.000000
 39
0.000000
  0
VERTEX
  8
PG_SILKSCREEN_TOP
 10
62.603100
 20
90.000000
 40
0.152400
 41
0.152400
 42
1.000000
  0
VERTEX
  8
PG_SILKSCREEN_TOP
 10
59.396900
 20
90.000000
 40
0.152400
 41
0.152400
 42
1.000000
  0
SEQEND
  0
POLYLINE
  8
PG_SILKSCREEN_TOP
 66
1
 70
1
 40
0.000000
 41
0.000000
 39
0.000000
  0
VERTEX
  8
PG_SILKSCREEN_TOP
 10
120.600000
 20
90.000000
 40
0.152400
 41
0.152400
 42
1.000000
  0
VERTEX
  8
PG_SILKSCREEN_TOP
 10
117.400000
 20
90.000000
 40
0.152400
 41
0.152400
 42
1.000000
  0
SEQEND
  0
POLYLINE
  8
PG_SILKSCREEN_TOP
 66
1
 70
1
 40
0.000000
 41
0.000000
 39
0.000000
  0
VERTEX
  8
PG_SILKSCREEN_TOP
 10
120.600000
 20
114.000000
 40
0.152400
 41
0.152400
 42
1.000000
  0
VERTEX
  8
PG_SILKSCREEN_TOP
 10
117.400000
 20
114.000000
 40
0.152400
 41
0.152400
 42
1.000000
  0
SEQEND
  0
POLYLINE
  8
PG_SILKSCREEN_TOP
 66
1
 70
1
 40
0.000000
 41
0.000000
 39
0.000000
  0
VERTEX
  8
PG_SILKSCREEN_TOP
 10
62.600000
 20
114.000000
 40
0.152400
 41
0.152400
 42
1.000000
  0
VERTEX
  8
PG_SILKSCREEN_TOP
 10
59.400000
 20
114.000000
 40
0.152400
 41
0.152400
 42
1.000000
  0
SEQEND
  0
POLYLINE
  8
BG_SILKSCREEN_TOP
 66
1
 70
0
 40
0.000000
 41
0.000000
 39
0.000000
  0
VERTEX
  8
BG_SILKSCREEN_TOP
 10
85.400000
 20
117.000000
 40
0.100000
 41
0.100000
 42
0.000000
  0
VERTEX
  8
BG_SILKSCREEN_TOP
 10
95.400000
 20
117.000000
 40
0.100000
 41
0.100000
 42
0.000000
  0
SEQEND
  0
POLYLINE
  8
BG_OUTLINE
 66
1
 70
1
 40
0.000000
 41
0.000000
 39
0.000000
  0
VERTEX
  8
BG_OUTLINE
 10
58.789000
 20
87.000000
 40
0.000000
 41
0.000000
 42
0.000000
  0
VERTEX
  8
BG_OUTLINE
 10
132.247000
 20
87.000000
 40
0.000000
 41
0.000000
 42
0.365339
  0
VERTEX
  8
BG_OUTLINE
 10
133.000000
 20
87.893000
 40
0.000000
 41
0.000000
 42
0.000000
  0
VERTEX
  8
BG_OUTLINE
 10
133.000000
 20
115.959800
 40
0.000000
 41
0.000000
 42
0.408977
  0
VERTEX
  8
BG_OUTLINE
 10
131.941000
 20
117.000000
 40
0.000000
 41
0.000000
 42
0.000000
  0
VERTEX
  8
BG_OUTLINE
 10
58.783000
 20
117.000000
 40
0.000000
 41
0.000000
 42
0.413094
  0
VERTEX
  8
BG_OUTLINE
 10
58.000000
 20
116.214000
 40
0.000000
 41
0.000000
 42
0.000000
  0
VERTEX
  8
BG_OUTLINE
 10
58.000000
 20
87.697100
 40
0.000000
 41
0.000000
 42
0.378480
  0
SEQEND
  0
TEXT
  8
PG_SILKSCREEN_TOP
 10
59.100000
 20
108.900000
 11
0.000000
 21
0.000000
 40
0.635000
 41
0.880000
 50
90.000000
  7
STANDARD
 71
0
 72
0
  1
1
 73
0
  0
TEXT
  8
BG_SILKSCREEN_TOP
 10
91.097800
 20
110.109500
 11
0.000000
 21
0.000000
 40
0.787400
 41
1.000000
 50
0.000000
  7
STANDARD
 71
0
 72
0
  1
1507
 73
0
  0
TEXT
  8
BG_SILKSCREEN_TOP
 10
85.357400
 20
110.109500
 11
0.000000
 21
0.000000
 40
0.787400
 41
1.000000
 50
0.000000
  7
STANDARD
 71
0
 72
0
  1
NanoPi
 73
0
  0
TEXT
  8
PG_SILKSCREEN_TOP
 10
80.641500
 20
92.274500
 11
0.000000
 21
0.000000
 40
0.787400
 41
1.000000
 50
90.000000
  7
STANDARD
 71
0
 72
0
  1
RXD
 73
0
  0
TEXT
  8
PG_SILKSCREEN_TOP
 10
79.244500
 20
92.274500
 11
0.000000
 21
0.000000
 40
0.787400
 41
1.000000
 50
90.000000
  7
STANDARD
 71
0
 72
0
  1
TXD
 73
0
  0
TEXT
  8
PG_SILKSCREEN_TOP
 10
77.339500
 20
92.414200
 11
0.000000
 21
0.000000
 40
0.787400
 41
1.000000
 50
90.000000
  7
STANDARD
 71
0
 72
0
  1
5V
 73
0
  0
TEXT
  8
PG_SILKSCREEN_TOP
 10
75.942500
 20
92.147500
 11
0.000000
 21
0.000000
 40
0.787400
 41
1.000000
 50
90.000000
  7
STANDARD
 71
0
 72
0
  1
GND
 73
0
  0
ENDSEC
  0
EOF
